  0
SECTION
  2
HEADER
  9
$ACADVER
  1
AC1015
  9
$ACADMAINTVER
 70
     6
  9
$DWGCODEPAGE
  3
ANSI_1254
  9
$INSBASE
 10
0.0
 20
0.0
 30
0.0
  9
$EXTMIN
 10
0.0
 20
0.0
 30
0.0
  9
$EXTMAX
 10
279.4
 20
215.9
 30
0.0
  9
$LIMMIN
 10
0.0
 20
0.0
  9
$LIMMAX
 10
279.4
 20
215.9
  9
$ORTHOMODE
 70
     0
  9
$REGENMODE
 70
     1
  9
$FILLMODE
 70
     1
  9
$QTEXTMODE
 70
     0
  9
$MIRRTEXT
 70
     1
  9
$LTSCALE
 40
1.0
  9
$ATTMODE
 70
     1
  9
$TEXTSIZE
 40
3.5
  9
$TRACEWID
 40
1.0
  9
$TEXTSTYLE
  7
Standard
  9
$CLAYER
  8
0
  9
$CELTYPE
  6
ByLayer
  9
$CECOLOR
 62
   256
  9
$CELTSCALE
 40
1.0
  9
$DISPSILH
 70
     0
  9
$DIMSCALE
 40
1.0
  9
$DIMASZ
 40
3.5
  9
$DIMEXO
 40
1.0
  9
$DIMDLI
 40
3.75
  9
$DIMRND
 40
0.0
  9
$DIMDLE
 40
0.0
  9
$DIMEXE
 40
1.0
  9
$DIMTP
 40
0.0
  9
$DIMTM
 40
0.0
  9
$DIMTXT
 40
3.5
  9
$DIMCEN
 40
2.5
  9
$DIMTSZ
 40
0.0
  9
$DIMTOL
 70
     0
  9
$DIMLIM
 70
     0
  9
$DIMTIH
 70
     1
  9
$DIMTOH
 70
     1
  9
$DIMSE1
 70
     0
  9
$DIMSE2
 70
     0
  9
$DIMTAD
 70
     1
  9
$DIMZIN
 70
     0
  9
$DIMBLK
  1

  9
$DIMASO
 70
     1
  9
$DIMSHO
 70
     1
  9
$DIMPOST
  1

  9
$DIMAPOST
  1

  9
$DIMALT
 70
     0
  9
$DIMALTD
 70
     3
  9
$DIMALTF
 40
0.0393700787
  9
$DIMLFAC
 40
1.0
  9
$DIMTOFL
 70
     1
  9
$DIMTVP
 40
0.0
  9
$DIMTIX
 70
     0
  9
$DIMSOXD
 70
     0
  9
$DIMSAH
 70
     0
  9
$DIMBLK1
  1

  9
$DIMBLK2
  1

  9
$DIMSTYLE
  2
ISO-25
  9
$DIMCLRD
 70
     0
  9
$DIMCLRE
 70
     0
  9
$DIMCLRT
 70
     0
  9
$DIMTFAC
 40
1.0
  9
$DIMGAP
 40
1.524
  9
$DIMJUST
 70
     0
  9
$DIMSD1
 70
     0
  9
$DIMSD2
 70
     0
  9
$DIMTOLJ
 70
     0
  9
$DIMTZIN
 70
     0
  9
$DIMALTZ
 70
     0
  9
$DIMALTTZ
 70
     0
  9
$DIMUPT
 70
     0
  9
$DIMDEC
 70
     2
  9
$DIMTDEC
 70
     2
  9
$DIMALTU
 70
     2
  9
$DIMALTTD
 70
     3
  9
$DIMTXSTY
  7
Standard
  9
$DIMAUNIT
 70
     0
  9
$DIMADEC
 70
     2
  9
$DIMALTRND
 40
0.0
  9
$DIMAZIN
 70
     0
  9
$DIMDSEP
 70
    44
  9
$DIMATFIT
 70
     3
  9
$DIMFRAC
 70
     0
  9
$DIMLDRBLK
  1

  9
$DIMLUNIT
 70
     2
  9
$DIMLWD
 70
    -2
  9
$DIMLWE
 70
    -2
  9
$DIMTMOVE
 70
     0
  9
$LUNITS
 70
     2
  9
$LUPREC
 70
     2
  9
$SKETCHINC
 40
1.0
  9
$FILLETRAD
 40
10.0
  9
$AUNITS
 70
     0
  9
$AUPREC
 70
     2
  9
$MENU
  1
.
  9
$ELEVATION
 40
0.0
  9
$PELEVATION
 40
0.0
  9
$THICKNESS
 40
0.0
  9
$LIMCHECK
 70
     0
  9
$CHAMFERA
 40
0.0
  9
$CHAMFERB
 40
0.0
  9
$CHAMFERC
 40
0.0
  9
$CHAMFERD
 40
0.0
  9
$SKPOLY
 70
     0
  9
$TDCREATE
 40
2459954.364239039
  9
$TDUCREATE
 40
2459954.239239039
  9
$TDUPDATE
 40
2459954.364240127
  9
$TDUUPDATE
 40
2459954.239240127
  9
$TDINDWG
 40
0.0000000116
  9
$TDUSRTIMER
 40
0.0000000116
  9
$USRTIMER
 70
     1
  9
$ANGBASE
 50
0.0
  9
$ANGDIR
 70
     0
  9
$PDMODE
 70
     0
  9
$PDSIZE
 40
-1.0
  9
$PLINEWID
 40
0.0
  9
$SPLFRAME
 70
     0
  9
$SPLINETYPE
 70
     6
  9
$SPLINESEGS
 70
     8
  9
$HANDSEED
  5
10E
  9
$SURFTAB1
 70
     6
  9
$SURFTAB2
 70
     6
  9
$SURFTYPE
 70
     6
  9
$SURFU
 70
     6
  9
$SURFV
 70
     6
  9
$UCSBASE
  2

  9
$UCSNAME
  2

  9
$UCSORG
 10
0.0
 20
0.0
 30
0.0
  9
$UCSXDIR
 10
1.0
 20
0.0
 30
0.0
  9
$UCSYDIR
 10
0.0
 20
1.0
 30
0.0
  9
$UCSORTHOREF
  2

  9
$UCSORTHOVIEW
 70
     0
  9
$UCSORGTOP
 10
0.0
 20
0.0
 30
0.0
  9
$UCSORGBOTTOM
 10
0.0
 20
0.0
 30
0.0
  9
$UCSORGLEFT
 10
0.0
 20
0.0
 30
0.0
  9
$UCSORGRIGHT
 10
0.0
 20
0.0
 30
0.0
  9
$UCSORGFRONT
 10
0.0
 20
0.0
 30
0.0
  9
$UCSORGBACK
 10
0.0
 20
0.0
 30
0.0
  9
$PUCSBASE
  2

  9
$PUCSNAME
  2

  9
$PUCSORG
 10
0.0
 20
0.0
 30
0.0
  9
$PUCSXDIR
 10
1.0
 20
0.0
 30
0.0
  9
$PUCSYDIR
 10
0.0
 20
1.0
 30
0.0
  9
$PUCSORTHOREF
  2

  9
$PUCSORTHOVIEW
 70
     0
  9
$PUCSORGTOP
 10
0.0
 20
0.0
 30
0.0
  9
$PUCSORGBOTTOM
 10
0.0
 20
0.0
 30
0.0
  9
$PUCSORGLEFT
 10
0.0
 20
0.0
 30
0.0
  9
$PUCSORGRIGHT
 10
0.0
 20
0.0
 30
0.0
  9
$PUCSORGFRONT
 10
0.0
 20
0.0
 30
0.0
  9
$PUCSORGBACK
 10
0.0
 20
0.0
 30
0.0
  9
$USERI1
 70
     0
  9
$USERI2
 70
     0
  9
$USERI3
 70
     0
  9
$USERI4
 70
     0
  9
$USERI5
 70
     0
  9
$USERR1
 40
0.0
  9
$USERR2
 40
0.0
  9
$USERR3
 40
0.0
  9
$USERR4
 40
0.0
  9
$USERR5
 40
0.0
  9
$WORLDVIEW
 70
     1
  9
$SHADEDGE
 70
     3
  9
$SHADEDIF
 70
    70
  9
$TILEMODE
 70
     1
  9
$MAXACTVP
 70
    64
  9
$PINSBASE
 10
0.0
 20
0.0
 30
0.0
  9
$PLIMCHECK
 70
     0
  9
$PEXTMIN
 10
1.0000000000E+20
 20
1.0000000000E+20
 30
1.0000000000E+20
  9
$PEXTMAX
 10
-1.0000000000E+20
 20
-1.0000000000E+20
 30
-1.0000000000E+20
  9
$PLIMMIN
 10
0.0
 20
0.0
  9
$PLIMMAX
 10
420.0
 20
297.0
  9
$UNITMODE
 70
     0
  9
$VISRETAIN
 70
     1
  9
$PLINEGEN
 70
     0
  9
$PSLTSCALE
 70
     1
  9
$TREEDEPTH
 70
  3020
  9
$CMLSTYLE
  2
Standard
  9
$CMLJUST
 70
     0
  9
$CMLSCALE
 40
20.0
  9
$PROXYGRAPHICS
 70
     1
  9
$MEASUREMENT
 70
     1
  9
$CELWEIGHT
370
    -1
  9
$ENDCAPS
280
     0
  9
$JOINSTYLE
280
     0
  9
$LWDISPLAY
290
     1
  9
$INSUNITS
 70
     4
  9
$HYPERLINKBASE
  1

  9
$STYLESHEET
  1

  9
$XEDIT
290
     1
  9
$CEPSNTYPE
380
     0
  9
$PSTYLEMODE
290
     1
  9
$FINGERPRINTGUID
  2
{fe937740-ddfa-4cd0-8ba0-fd760aa75dd5}
  9
$VERSIONGUID
  2
{FAEB1C32-E019-11D5-929B-00C0DF256EC4}
  9
$EXTNAMES
290
     1
  9
$PSVPSCALE
 40
0.0
  9
$OLESTARTUP
290
     0
  0
ENDSEC
  0
SECTION
  2
CLASSES
  0
CLASS
  1
ACDBDICTIONARYWDFLT
  2
AcDbDictionaryWithDefault
  3
ObjectDBX Classes
 90
        0
280
     0
281
     0
  0
CLASS
  1
VISUALSTYLE
  2
AcDbVisualStyle
  3
ObjectDBX Classes
 90
     4095
280
     0
281
     0
  0
CLASS
  1
MATERIAL
  2
AcDbMaterial
  3
ObjectDBX Classes
 90
     1153
280
     0
281
     0
  0
CLASS
  1
SCALE
  2
AcDbScale
  3
ObjectDBX Classes
 90
     1153
280
     0
281
     0
  0
CLASS
  1
TABLESTYLE
  2
AcDbTableStyle
  3
ObjectDBX Classes
 90
     4095
280
     0
281
     0
  0
CLASS
  1
MLEADERSTYLE
  2
AcDbMLeaderStyle
  3
ACDB_MLEADERSTYLE_CLASS
 90
     4095
280
     0
281
     0
  0
CLASS
  1
SUN
  2
AcDbSun
  3
SCENEOE
 90
     1153
280
     0
281
     0
  0
CLASS
  1
ACDBPLACEHOLDER
  2
AcDbPlaceHolder
  3
ObjectDBX Classes
 90
        0
280
     0
281
     0
  0
CLASS
  1
LAYOUT
  2
AcDbLayout
  3
ObjectDBX Classes
 90
        0
280
     0
281
     0
  0
ENDSEC
  0
SECTION
  2
TABLES
  0
TABLE
  2
VPORT
  5
8
330
0
100
AcDbSymbolTable
 70
     1
  0
VPORT
  5
29
330
8
100
AcDbSymbolTableRecord
100
AcDbViewportTableRecord
  2
*Active
 70
     0
 10
0.0
 20
0.0
 11
1.0
 21
1.0
 12
139.7
 22
107.95
 13
0.0
 23
0.0
 14
10.0
 24
10.0
 15
10.0
 25
10.0
 16
0.0
 26
0.0
 36
1.0
 17
0.0
 27
0.0
 37
0.0
 40
215.9
 41
1.2941176471
 42
50.0
 43
0.0
 44
0.0
 50
0.0
 51
0.0
 71
     0
 72
  2000
 73
     1
 74
     3
 75
     0
 76
     0
 77
     0
 78
     0
281
     0
 65
     1
110
0.0
120
0.0
130
0.0
111
1.0
121
0.0
131
0.0
112
0.0
122
1.0
132
0.0
 79
     0
146
0.0
  0
ENDTAB
  0
TABLE
  2
LTYPE
  5
5
330
0
100
AcDbSymbolTable
 70
     6
  0
LTYPE
  5
14
330
5
100
AcDbSymbolTableRecord
100
AcDbLinetypeTableRecord
  2
ByBlock
 70
     0
  3

 72
    65
 73
     0
 40
0.0
  0
LTYPE
  5
15
330
5
100
AcDbSymbolTableRecord
100
AcDbLinetypeTableRecord
  2
ByLayer
 70
     0
  3

 72
    65
 73
     0
 40
0.0
  0
LTYPE
  5
16
330
5
100
AcDbSymbolTableRecord
100
AcDbLinetypeTableRecord
  2
Continuous
 70
     0
  3
Solid line
 72
    65
 73
     0
 40
0.0
  0
LTYPE
  5
6E
330
5
100
AcDbSymbolTableRecord
100
AcDbLinetypeTableRecord
  2
HIDDEN
 70
     0
  3
Hidden __ __ __ __ __ __ __ __ __ __ __ __ __ __
 72
    65
 73
     2
 40
1.905
 49
1.27
 74
     0
 49
-0.635
 74
     0
  0
LTYPE
  5
6F
330
5
100
AcDbSymbolTableRecord
100
AcDbLinetypeTableRecord
  2
PHANTOM
 70
     0
  3
Phantom ______  __  __  ______  __  __  ______
 72
    65
 73
     6
 40
12.7
 49
6.35
 74
     0
 49
-1.27
 74
     0
 49
1.27
 74
     0
 49
-1.27
 74
     0
 49
1.27
 74
     0
 49
-1.27
 74
     0
  0
LTYPE
  5
70
330
5
100
AcDbSymbolTableRecord
100
AcDbLinetypeTableRecord
  2
CENTER
 70
     0
  3
Center ____ _ ____ _ ____ _ ____ _ ____ _ ____
 72
    65
 73
     4
 40
10.16
 49
6.35
 74
     0
 49
-1.27
 74
     0
 49
1.27
 74
     0
 49
-1.27
 74
     0
  0
LTYPE
  5
71
330
5
100
AcDbSymbolTableRecord
100
AcDbLinetypeTableRecord
  2
CENTERX2
 70
     0
  3
Center (2x) ________  __  ________  __  _____
 72
    65
 73
     4
 40
20.32
 49
12.7
 74
     0
 49
-2.54
 74
     0
 49
2.54
 74
     0
 49
-2.54
 74
     0
  0
LTYPE
  5
72
330
5
100
AcDbSymbolTableRecord
100
AcDbLinetypeTableRecord
  2
DOT2
 70
     0
  3
Dot (.5x) ........................................
 72
    65
 73
     2
 40
0.635
 49
0.0
 74
     0
 49
-0.635
 74
     0
  0
ENDTAB
  0
TABLE
  2
LAYER
  5
2
330
0
100
AcDbSymbolTable
 70
    17
  0
LAYER
  5
10
330
2
100
AcDbSymbolTableRecord
100
AcDbLayerTableRecord
  2
0
 70
     0
 62
     7
  6
Continuous
370
    -3
390
F
  0
LAYER
  5
73
330
2
100
AcDbSymbolTableRecord
100
AcDbLayerTableRecord
  2
FORMAT
 70
     0
 62
     7
  6
Continuous
370
    -3
390
F
  0
LAYER
  5
74
330
2
100
AcDbSymbolTableRecord
100
AcDbLayerTableRecord
  2
YARDIMCI_GEOMETRI
 70
     0
 62
    -6
  6
Continuous
290
     0
370
    -3
390
F
  0
LAYER
  5
75
330
2
100
AcDbSymbolTableRecord
100
AcDbLayerTableRecord
  2
SAYFA_CERCEVESI
 70
     0
 62
     7
  6
Continuous
370
    25
390
F
  0
LAYER
  5
76
330
2
100
AcDbSymbolTableRecord
100
AcDbLayerTableRecord
  2
ANTET
 70
     0
 62
     7
  6
Continuous
370
    -3
390
F
  0
LAYER
  5
77
330
2
100
AcDbSymbolTableRecord
100
AcDbLayerTableRecord
  2
OLCU
 70
     0
 62
   150
  6
Continuous
370
    -3
390
F
  0
LAYER
  5
78
330
2
100
AcDbSymbolTableRecord
100
AcDbLayerTableRecord
  2
METIN
 70
     0
 62
    96
  6
Continuous
370
    -3
390
F
  0
LAYER
  5
79
330
2
100
AcDbSymbolTableRecord
100
AcDbLayerTableRecord
  2
BALON
 70
     0
 62
     5
  6
Continuous
370
    -3
390
F
  0
LAYER
  5
7A
330
2
100
AcDbSymbolTableRecord
100
AcDbLayerTableRecord
  2
VURGU
 70
     0
 62
     7
  6
Continuous
370
    -3
390
F
  0
LAYER
  5
7B
330
2
100
AcDbSymbolTableRecord
100
AcDbLayerTableRecord
  2
SILIK
 70
     0
 62
     7
  6
Continuous
370
    -3
390
F
  0
LAYER
  5
7C
330
2
100
AcDbSymbolTableRecord
100
AcDbLayerTableRecord
  2
MODEL
 70
     0
 62
     7
  6
Continuous
370
    -3
390
F
  0
LAYER
  5
7D
330
2
100
AcDbSymbolTableRecord
100
AcDbLayerTableRecord
  2
DETAYLANDıRMA
 70
     0
 62
   190
  6
Continuous
370
    -3
390
F
  0
LAYER
  5
7E
330
2
100
AcDbSymbolTableRecord
100
AcDbLayerTableRecord
  2
TOLERANS
 70
     0
 62
   230
  6
Continuous
370
    -3
390
F
  0
LAYER
  5
7F
330
2
100
AcDbSymbolTableRecord
100
AcDbLayerTableRecord
  2
MERKEZ_CIZGILERI
 70
     0
 62
    30
  6
Continuous
370
    -3
390
F
  0
LAYER
  5
80
330
2
100
AcDbSymbolTableRecord
100
AcDbLayerTableRecord
  2
KESIT-DETAY_CIZGILERI
 70
     0
 62
     7
  6
Continuous
370
    -3
390
F
  0
LAYER
  5
81
330
2
100
AcDbSymbolTableRecord
100
AcDbLayerTableRecord
  2
\U+041E\U+0421\U+0415\U+0412\U+042B\U+0415
 70
     0
 62
     7
  6
Continuous
370
    -3
390
F
  0
LAYER
  5
82
330
2
100
AcDbSymbolTableRecord
100
AcDbLayerTableRecord
  2
\U+0412\U+041E\U+0414\U+042F\U+041D\U+042B\U+0415_\U+0417\U+041D\U+0410\U+041A\U+0418
 70
     0
 62
    11
  6
Continuous
370
    -3
390
F
  0
ENDTAB
  0
TABLE
  2
STYLE
  5
3
330
0
100
AcDbSymbolTable
 70
     1
  0
STYLE
  5
11
330
3
100
AcDbSymbolTableRecord
100
AcDbTextStyleTableRecord
  2
Standard
 70
     0
 40
0.0
 41
1.0
 50
0.0
 71
     0
 42
3.5
  3
txt
  4

  0
ENDTAB
  0
TABLE
  2
VIEW
  5
6
330
0
100
AcDbSymbolTable
 70
     0
  0
ENDTAB
  0
TABLE
  2
UCS
  5
7
330
0
100
AcDbSymbolTable
 70
     0
  0
ENDTAB
  0
TABLE
  2
APPID
  5
9
330
0
100
AcDbSymbolTable
 70
     1
  0
APPID
  5
12
330
9
100
AcDbSymbolTableRecord
100
AcDbRegAppTableRecord
  2
ACAD
 70
     0
  0
ENDTAB
  0
TABLE
  2
DIMSTYLE
  5
A
330
0
100
AcDbSymbolTable
 70
     1
100
AcDbDimStyleTable
  0
DIMSTYLE
105
27
330
A
100
AcDbSymbolTableRecord
100
AcDbDimStyleTableRecord
  2
ISO-25
 70
     0
 41
2.5
 42
0.625
 43
3.75
 44
1.25
 73
     0
 74
     0
 77
     1
 78
     8
140
2.5
141
2.5
143
0.0393700787
147
0.625
171
     3
172
     1
178
     0
271
     2
272
     2
274
     3
278
    44
283
     0
284
     8
340
11
  0
ENDTAB
  0
TABLE
  2
BLOCK_RECORD
  5
1
330
0
100
AcDbSymbolTable
 70
     4
  0
BLOCK_RECORD
  5
1F
330
1
100
AcDbSymbolTableRecord
100
AcDbBlockTableRecord
  2
*Model_Space
340
22
  0
BLOCK_RECORD
  5
1B
330
1
100
AcDbSymbolTableRecord
100
AcDbBlockTableRecord
  2
*Paper_Space
340
1E
  0
BLOCK_RECORD
  5
23
330
1
100
AcDbSymbolTableRecord
100
AcDbBlockTableRecord
  2
*Paper_Space0
340
26
  0
BLOCK_RECORD
  5
8C
330
1
100
AcDbSymbolTableRecord
100
AcDbBlockTableRecord
  2
SW_CENTERMARKSYMBOL_0
340
0
102
{BLKREFS
331
97
102
}
  0
BLOCK_RECORD
  5
DE
330
1
100
AcDbSymbolTableRecord
100
AcDbBlockTableRecord
  2
SW_CENTERMARKSYMBOL_1
340
0
102
{BLKREFS
331
E9
102
}
  0
BLOCK_RECORD
  5
EA
330
1
100
AcDbSymbolTableRecord
100
AcDbBlockTableRecord
  2
SW_CENTERMARKSYMBOL_2
340
0
102
{BLKREFS
331
F5
102
}
  0
ENDTAB
  0
ENDSEC
  0
SECTION
  2
BLOCKS
  0
BLOCK
  5
20
330
1F
100
AcDbEntity
  8
0
100
AcDbBlockBegin
  2
*Model_Space
 70
     0
 10
0.0
 20
0.0
 30
0.0
  3
*Model_Space
  1

  0
ENDBLK
  5
21
330
1F
100
AcDbEntity
  8
0
100
AcDbBlockEnd
  0
BLOCK
  5
1C
330
1B
100
AcDbEntity
 67
     1
  8
0
100
AcDbBlockBegin
  2
*Paper_Space
 70
     0
 10
0.0
 20
0.0
 30
0.0
  3
*Paper_Space
  1

  0
ENDBLK
  5
1D
330
1B
100
AcDbEntity
 67
     1
  8
0
100
AcDbBlockEnd
  0
BLOCK
  5
24
330
23
100
AcDbEntity
  8
0
100
AcDbBlockBegin
  2
*Paper_Space0
 70
     0
 10
0.0
 20
0.0
 30
0.0
  3
*Paper_Space0
  1

  0
ENDBLK
  5
25
330
23
100
AcDbEntity
  8
0
100
AcDbBlockEnd
  0
BLOCK
  5
8D
330
8C
100
AcDbEntity
  8
0
100
AcDbBlockBegin
  2
SW_CENTERMARKSYMBOL_0
 70
     0
 10
0.0
 20
0.0
 30
0.0
  3
SW_CENTERMARKSYMBOL_0
  1

  0
LINE
  5
8F
330
8C
100
AcDbEntity
  8
FORMAT
 62
     0
100
AcDbLine
 10
0.0
 20
0.0
 30
0.0
 11
0.0
 21
2.5
 31
0.0
  0
LINE
  5
90
330
8C
100
AcDbEntity
  8
FORMAT
 62
     0
100
AcDbLine
 10
0.0
 20
0.0
 30
0.0
 11
-2.5
 21
0.0
 31
0.0
  0
LINE
  5
91
330
8C
100
AcDbEntity
  8
FORMAT
 62
     0
100
AcDbLine
 10
0.0
 20
0.0
 30
0.0
 11
0.0
 21
-2.5
 31
0.0
  0
LINE
  5
92
330
8C
100
AcDbEntity
  8
FORMAT
 62
     0
100
AcDbLine
 10
0.0
 20
0.0
 30
0.0
 11
2.5
 21
0.0
 31
0.0
  0
LINE
  5
93
330
8C
100
AcDbEntity
  8
FORMAT
 62
     0
100
AcDbLine
 10
0.0
 20
5.0
 30
0.0
 11
0.0
 21
12.65
 31
0.0
  0
LINE
  5
94
330
8C
100
AcDbEntity
  8
FORMAT
 62
     0
100
AcDbLine
 10
-5.0
 20
0.0
 30
0.0
 11
-12.65
 21
0.0
 31
0.0
  0
LINE
  5
95
330
8C
100
AcDbEntity
  8
FORMAT
 62
     0
100
AcDbLine
 10
0.0
 20
-5.0
 30
0.0
 11
0.0
 21
-12.65
 31
0.0
  0
LINE
  5
96
330
8C
100
AcDbEntity
  8
FORMAT
 62
     0
100
AcDbLine
 10
5.0
 20
0.0
 30
0.0
 11
12.65
 21
0.0
 31
0.0
  0
ENDBLK
  5
8E
330
8C
100
AcDbEntity
  8
0
100
AcDbBlockEnd
  0
BLOCK
  5
DF
330
DE
100
AcDbEntity
  8
0
100
AcDbBlockBegin
  2
SW_CENTERMARKSYMBOL_1
 70
     0
 10
0.0
 20
0.0
 30
0.0
  3
SW_CENTERMARKSYMBOL_1
  1

  0
LINE
  5
E1
330
DE
100
AcDbEntity
  8
FORMAT
 62
     0
100
AcDbLine
 10
0.0
 20
0.0
 30
0.0
 11
0.0
 21
2.5
 31
0.0
  0
LINE
  5
E2
330
DE
100
AcDbEntity
  8
FORMAT
 62
     0
100
AcDbLine
 10
0.0
 20
0.0
 30
0.0
 11
-2.5
 21
0.0
 31
0.0
  0
LINE
  5
E3
330
DE
100
AcDbEntity
  8
FORMAT
 62
     0
100
AcDbLine
 10
0.0
 20
0.0
 30
0.0
 11
0.0
 21
-2.5
 31
0.0
  0
LINE
  5
E4
330
DE
100
AcDbEntity
  8
FORMAT
 62
     0
100
AcDbLine
 10
0.0
 20
0.0
 30
0.0
 11
2.5
 21
0.0
 31
0.0
  0
LINE
  5
E5
330
DE
100
AcDbEntity
  8
FORMAT
 62
     0
100
AcDbLine
 10
0.0
 20
5.0
 30
0.0
 11
0.0
 21
9.5
 31
0.0
  0
LINE
  5
E6
330
DE
100
AcDbEntity
  8
FORMAT
 62
     0
100
AcDbLine
 10
-5.0
 20
0.0
 30
0.0
 11
-9.5
 21
0.0
 31
0.0
  0
LINE
  5
E7
330
DE
100
AcDbEntity
  8
FORMAT
 62
     0
100
AcDbLine
 10
0.0
 20
-5.0
 30
0.0
 11
0.0
 21
-9.5
 31
0.0
  0
LINE
  5
E8
330
DE
100
AcDbEntity
  8
FORMAT
 62
     0
100
AcDbLine
 10
5.0
 20
0.0
 30
0.0
 11
9.5
 21
0.0
 31
0.0
  0
ENDBLK
  5
E0
330
DE
100
AcDbEntity
  8
0
100
AcDbBlockEnd
  0
BLOCK
  5
EB
330
EA
100
AcDbEntity
  8
0
100
AcDbBlockBegin
  2
SW_CENTERMARKSYMBOL_2
 70
     0
 10
0.0
 20
0.0
 30
0.0
  3
SW_CENTERMARKSYMBOL_2
  1

  0
LINE
  5
ED
330
EA
100
AcDbEntity
  8
FORMAT
 62
     0
100
AcDbLine
 10
0.0
 20
0.0
 30
0.0
 11
0.0
 21
2.5
 31
0.0
  0
LINE
  5
EE
330
EA
100
AcDbEntity
  8
FORMAT
 62
     0
100
AcDbLine
 10
0.0
 20
0.0
 30
0.0
 11
-2.5
 21
0.0
 31
0.0
  0
LINE
  5
EF
330
EA
100
AcDbEntity
  8
FORMAT
 62
     0
100
AcDbLine
 10
0.0
 20
0.0
 30
0.0
 11
0.0
 21
-2.5
 31
0.0
  0
LINE
  5
F0
330
EA
100
AcDbEntity
  8
FORMAT
 62
     0
100
AcDbLine
 10
0.0
 20
0.0
 30
0.0
 11
2.5
 21
0.0
 31
0.0
  0
LINE
  5
F1
330
EA
100
AcDbEntity
  8
FORMAT
 62
     0
100
AcDbLine
 10
0.0
 20
5.0
 30
0.0
 11
0.0
 21
9.5
 31
0.0
  0
LINE
  5
F2
330
EA
100
AcDbEntity
  8
FORMAT
 62
     0
100
AcDbLine
 10
-5.0
 20
0.0
 30
0.0
 11
-9.5
 21
0.0
 31
0.0
  0
LINE
  5
F3
330
EA
100
AcDbEntity
  8
FORMAT
 62
     0
100
AcDbLine
 10
0.0
 20
-5.0
 30
0.0
 11
0.0
 21
-9.5
 31
0.0
  0
LINE
  5
F4
330
EA
100
AcDbEntity
  8
FORMAT
 62
     0
100
AcDbLine
 10
5.0
 20
0.0
 30
0.0
 11
9.5
 21
0.0
 31
0.0
  0
ENDBLK
  5
EC
330
EA
100
AcDbEntity
  8
0
100
AcDbBlockEnd
  0
ENDSEC
  0
SECTION
  2
ENTITIES
  0
LINE
  5
83
330
1F
100
AcDbEntity
  8
0
  6
Continuous
 62
     7
370
    25
100
AcDbLine
 10
137.6070913462
 20
109.9862083586
 30
0.0
 11
137.6070913462
 21
125.1949519231
 31
0.0
  0
LINE
  5
84
330
1F
100
AcDbEntity
  8
0
  6
Continuous
 62
     7
370
    25
100
AcDbLine
 10
123.6070913462
 20
125.1949519231
 30
0.0
 11
123.6070913462
 21
109.985805331
 31
0.0
  0
CIRCLE
  5
85
330
1F
100
AcDbEntity
  8
0
  6
Continuous
 62
     7
370
    25
100
AcDbCircle
 10
130.6070913462
 20
95.8949519231
 30
0.0
 40
15.0
  0
ARC
  5
86
330
1F
100
AcDbEntity
  8
0
  6
Continuous
 62
     7
370
    25
100
AcDbCircle
 10
130.6070913462
 20
95.8949519231
 30
0.0
 40
16.0
100
AcDbArc
 50
115.9444797724
 51
180.0
  0
ARC
  5
87
330
1F
100
AcDbEntity
  8
0
  6
Continuous
 62
     7
370
    25
100
AcDbCircle
 10
130.6070913462
 20
95.8949519231
 30
0.0
 40
16.00000000000002
100
AcDbArc
 50
180.0
 51
64.0555202276
  0
SPLINE
  5
88
330
1F
100
AcDbEntity
  8
0
  6
Continuous
 62
     7
370
    25
100
AcDbSpline
210
0.0
220
0.0
230
1.0
 70
     8
 71
     3
 72
    22
 73
    18
 74
     0
 42
0.00000001
 43
0.00000001
 40
0.0
 40
0.0
 40
0.0
 40
0.0
 40
0.0692130646339094
 40
0.138422178249464
 40
0.207759514967019
 40
0.277071151861216
 40
0.3436132568373433
 40
0.4101504744702785
 40
0.4733392396736316
 40
0.536544166604461
 40
0.6012163297451585
 40
0.6659018962977857
 40
0.7347703806853971
 40
0.8036226856228036
 40
0.873016092708809
 40
0.9423755944180645
 40
1.0
 40
1.0
 40
1.0
 40
1.0
 10
136.0970265145274
 20
110.4106295005319
 30
0.0
 10
135.8360583199987
 20
110.4872538605349
 30
0.0
 10
135.3141368282752
 20
110.6404982064498
 30
0.0
 10
134.3550586485142
 20
110.870726812015
 30
0.0
 10
133.2909915586661
 20
111.0641171062061
 30
0.0
 10
132.1541192178519
 20
111.2014333315834
 30
0.0
 10
130.983154909988
 20
111.2629705666878
 30
0.0
 10
129.835800310107
 20
111.251062070804
 30
0.0
 10
128.7323930853069
 20
111.1667098307858
 30
0.0
 10
127.6909634580482
 20
111.0267343012871
 30
0.0
 10
126.7217278929819
 20
110.8390031455447
 30
0.0
 10
125.8262531304888
 20
110.6199603320519
 30
0.0
 10
125.0431907682265
 20
110.3918467338993
 30
0.0
 10
124.3934924626469
 20
110.1817415622247
 30
0.0
 10
123.9270797390162
 20
110.0297333909311
 30
0.0
 10
123.6491879634364
 20
109.9513946362347
 30
0.0
 10
123.6261069126761
 20
109.9750642337768
 30
0.0
 10
123.6156328938918
 20
109.9858053309585
 30
0.0
  0
SPLINE
  5
89
330
1F
100
AcDbEntity
  8
0
  6
Continuous
 62
     7
370
    25
100
AcDbSpline
210
0.0
220
0.0
230
1.0
 70
     8
 71
     3
 72
    12
 73
     8
 74
     0
 42
0.00000001
 43
0.00000001
 40
0.0
 40
0.0
 40
0.0
 40
0.0
 40
0.2070176746668657
 40
0.4439610232623745
 40
0.6719938166638165
 40
0.9001060896094685
 40
1.0
 40
1.0
 40
1.0
 40
1.0
 10
137.5971789240517
 20
109.9862083586
 30
0.0
 10
137.5876547017783
 20
109.9757609387554
 30
0.0
 10
137.5672294725167
 20
109.9533558604831
 30
0.0
 10
137.3258598273212
 20
110.0174704176781
 30
0.0
 10
136.9286658321932
 20
110.1460314724337
 30
0.0
 10
136.496491317164
 20
110.2878845493946
 30
0.0
 10
136.1902821641143
 20
110.3819745099639
 30
0.0
 10
136.0970265145274
 20
110.4106295005319
 30
0.0
  0
CIRCLE
  5
8A
330
1F
100
AcDbEntity
  8
0
  6
Continuous
 62
     7
370
    25
100
AcDbCircle
 10
130.6070913462
 20
95.8949519231
 30
0.0
 40
10.14999999999998
  0
LINE
  5
8B
330
1F
100
AcDbEntity
  8
0
  6
Continuous
 62
     7
370
    25
100
AcDbLine
 10
137.6070913462
 20
125.1949519231
 30
0.0
 11
123.6070913462
 21
125.1949519231
 31
0.0
  0
INSERT
  5
97
330
1F
100
AcDbEntity
  8
FORMAT
 62
     7
100
AcDbBlockReference
  2
SW_CENTERMARKSYMBOL_0
 10
130.6070913462
 20
95.8949519231
 30
0.0
  0
ARC
  5
98
330
1F
100
AcDbEntity
  8
0
  6
Continuous
 62
     7
370
    25
100
AcDbCircle
 10
216.3480724174
 20
-201.1050480769
 30
0.0
 40
312.9999999999988
100
AcDbArc
 50
93.6622771697
 51
94.5812200853
  0
ARC
  5
99
330
1F
100
AcDbEntity
  8
0
  6
Continuous
 62
     7
370
    25
100
AcDbCircle
 10
216.3480724174
 20
-201.1050480769
 30
0.0
 40
312.9999999999988
100
AcDbArc
 50
90.0
 51
91.1004974573
  0
ARC
  5
9A
330
1F
100
AcDbEntity
  8
0
  6
Continuous
 62
     7
370
    25
100
AcDbCircle
 10
216.3480724174
 20
392.8949519231
 30
0.0
 40
312.9999999999989
100
AcDbArc
 50
265.4187799147
 51
270.0
  0
LINE
  5
9B
330
1F
100
AcDbEntity
  8
0
  6
Continuous
 62
     7
370
    25
100
AcDbLine
 10
216.3480724174
 20
79.8949519231
 30
0.0
 11
241.3480724174
 21
79.8949519231
 31
0.0
  0
LINE
  5
9C
330
1F
100
AcDbEntity
  8
0
  6
Continuous
 62
     7
370
    25
100
AcDbLine
 10
241.3480724174
 20
111.8949519231
 30
0.0
 11
216.3480724174
 21
111.8949519231
 31
0.0
  0
ARC
  5
9D
330
1F
100
AcDbEntity
  8
0
  6
Continuous
 62
     7
370
    25
100
AcDbCircle
 10
241.3480724174
 20
-201.1050480769
 30
0.0
 40
312.9999999999988
100
AcDbArc
 50
88.8976693015
 51
90.0
  0
ARC
  5
9E
330
1F
100
AcDbEntity
  8
0
  6
Continuous
 62
     7
370
    25
100
AcDbCircle
 10
241.3480724174
 20
-201.1050480769
 30
0.0
 40
312.9999999999989
100
AcDbArc
 50
85.4187799147
 51
86.3403922277
  0
ARC
  5
9F
330
1F
100
AcDbEntity
  8
0
  6
Continuous
 62
     7
370
    25
100
AcDbCircle
 10
241.3480724174
 20
392.8949519231
 30
0.0
 40
312.9999999999989
100
AcDbArc
 50
270.0
 51
274.5812200853
  0
LINE
  5
A0
330
1F
100
AcDbEntity
  8
0
  6
Continuous
 62
     7
370
    25
100
AcDbLine
 10
210.3480724174
 20
111.8322239012
 30
0.0
 11
210.3480724174
 21
125.1949519231
 31
0.0
  0
LINE
  5
A1
330
1F
100
AcDbEntity
  8
0
  6
Continuous
 62
     7
370
    25
100
AcDbLine
 10
196.3480724174
 20
125.1949519231
 30
0.0
 11
196.3480724174
 21
111.2525269477
 31
0.0
  0
LINE
  5
A2
330
1F
100
AcDbEntity
  8
0
  6
Continuous
 62
     7
370
    25
100
AcDbLine
 10
261.3480724174
 20
111.2466877711
 30
0.0
 11
261.3480724174
 21
125.1949519231
 31
0.0
  0
LINE
  5
A3
330
1F
100
AcDbEntity
  8
0
  6
Continuous
 62
     7
370
    25
100
AcDbLine
 10
247.3480724174
 20
125.1949519231
 30
0.0
 11
247.3480724174
 21
111.8276649824
 31
0.0
  0
LINE
  5
A4
330
1F
100
AcDbEntity
  8
0
  6
Continuous
 62
     7
370
    25
100
AcDbLine
 10
191.3480724174
 20
95.8949519231
 30
0.0
 11
191.3480724174
 21
110.8949519231
 31
0.0
  0
LINE
  5
A5
330
1F
100
AcDbEntity
  8
0
  6
Continuous
 62
     7
370
    25
100
AcDbLine
 10
191.3480724174
 20
80.8949519231
 30
0.0
 11
191.3480724174
 21
95.8949519231
 31
0.0
  0
SPLINE
  5
A6
330
1F
100
AcDbEntity
  8
0
  6
Continuous
 62
     7
370
    25
100
AcDbSpline
210
0.0
220
0.0
230
1.0
 70
     8
 71
     3
 72
    28
 73
    24
 74
     0
 42
0.00000001
 43
0.00000001
 40
0.0
 40
0.0
 40
0.0
 40
0.0
 40
0.0077113320565682
 40
0.0589814446435699
 40
0.1066914903471534
 40
0.1556696292213887
 40
0.2057144463683022
 40
0.2569986747764501
 40
0.3111790859997688
 40
0.3668724970951794
 40
0.4217537715222417
 40
0.4785273345430003
 40
0.5286959404997486
 40
0.5805014499251011
 40
0.6280458419428476
 40
0.6768285826498602
 40
0.7271967063969575
 40
0.7788373974254922
 40
0.8326901895771637
 40
0.888153998482874
 40
0.9409249333361915
 40
0.9954372777780168
 40
0.9999999999999999
 40
0.9999999999999999
 40
0.9999999999999999
 40
0.9999999999999999
 10
210.336623827105
 20
111.8322064367764
 30
0.0
 10
210.3402782169879
 20
111.8338764208886
 30
0.0
 10
210.3682294442212
 20
111.8466495805378
 30
0.0
 10
210.2486366671202
 20
111.7917733073011
 30
0.0
 10
209.9762031624738
 20
111.6693408689625
 30
0.0
 10
209.5381850582487
 20
111.4797081937222
 30
0.0
 10
208.9491357409988
 20
111.2398166543813
 30
0.0
 10
208.2020420068433
 20
110.9612677337842
 30
0.0
 10
207.2987216032353
 20
110.6652143956591
 30
0.0
 10
206.2569581135848
 20
110.3835762172647
 30
0.0
 10
205.1018330356204
 20
110.15009231915
 30
0.0
 10
203.9191503151378
 20
110.0030882960794
 30
0.0
 10
202.7370534964625
 20
109.9511019575586
 30
0.0
 10
201.638238053047
 20
109.9879145312821
 30
0.0
 10
200.598322371456
 20
110.0980972580079
 30
0.0
 10
199.6392072195655
 20
110.261958751997
 30
0.0
 10
198.7493348198035
 20
110.4667330210289
 30
0.0
 10
197.9496002311954
 20
110.6922533550492
 30
0.0
 10
197.2717650036601
 20
110.9128491402226
 30
0.0
 10
196.7559132086821
 20
111.0985293452362
 30
0.0
 10
196.447626872749
 20
111.2161636014537
 30
0.0
 10
196.3222903798772
 20
111.2653746044037
 30
0.0
 10
196.3529514575426
 20
111.253417903818
 30
0.0
 10
196.3553195967308
 20
111.2524944160161
 30
0.0
  0
LINE
  5
A7
330
1F
100
AcDbEntity
  8
0
  6
Continuous
 62
     7
370
    25
100
AcDbLine
 10
266.3480724174
 20
95.8949519231
 30
0.0
 11
266.3480724174
 21
110.8949519231
 31
0.0
  0
LINE
  5
A8
330
1F
100
AcDbEntity
  8
0
  6
Continuous
 62
     7
370
    25
100
AcDbLine
 10
266.3480724174
 20
80.8949519231
 30
0.0
 11
266.3480724174
 21
95.8949519231
 31
0.0
  0
SPLINE
  5
A9
330
1F
100
AcDbEntity
  8
0
  6
Continuous
 62
     7
370
    25
100
AcDbSpline
210
0.0
220
0.0
230
1.0
 70
     8
 71
     3
 72
    27
 73
    23
 74
     0
 42
0.00000001
 43
0.00000001
 40
0.0
 40
0.0
 40
0.0
 40
0.0
 40
0.0353774620427287
 40
0.0842745804627815
 40
0.1345327073012451
 40
0.184629082169312
 40
0.236011457324463
 40
0.2892748496972868
 40
0.3440512999281448
 40
0.3975691395579756
 40
0.4529053042919433
 40
0.5022425006965485
 40
0.5531289946916518
 40
0.6008026007900066
 40
0.6496829073607934
 40
0.7009196288717168
 40
0.7534330602618609
 40
0.8085807295316688
 40
0.8653970970778231
 40
0.9190632644999522
 40
0.9745838354424599
 40
1.0
 40
1.0
 40
1.0
 40
1.0
 10
261.3259682384766
 20
111.2466819427621
 30
0.0
 10
261.3262449053661
 20
111.2467749222885
 30
0.0
 10
261.3269039686426
 20
111.2469964138859
 30
0.0
 10
261.1191013471969
 20
111.1662529484855
 30
0.0
 10
260.7490663917113
 20
111.0283583678256
 30
0.0
 10
260.2080829456806
 20
110.8401238997386
 30
0.0
 10
259.5111759777965
 20
110.621954220211
 30
0.0
 10
258.6535150573134
 20
110.3926820627716
 30
0.0
 10
257.658319150675
 20
110.1843754667467
 30
0.0
 10
256.546506590074
 20
110.0278264931357
 30
0.0
 10
255.3999147214316
 20
109.9548039808104
 30
0.0
 10
254.2433044529216
 20
109.9726138295445
 30
0.0
 10
253.1501611316914
 20
110.0724095806708
 30
0.0
 10
252.0994381015209
 20
110.24320082831
 30
0.0
 10
251.1078256248482
 20
110.4680452282026
 30
0.0
 10
250.1700355250938
 20
110.7361086864912
 30
0.0
 10
249.3050502440085
 20
111.028502310148
 30
0.0
 10
248.5487064454263
 20
111.3177493456784
 30
0.0
 10
247.9503534800318
 20
111.5680528805962
 30
0.0
 10
247.5474082327249
 20
111.7462675840175
 30
0.0
 10
247.3539215638435
 20
111.8347547892116
 30
0.0
 10
247.3657192566212
 20
111.8293592234807
 30
0.0
 10
247.3694240279983
 20
111.8276648805393
 30
0.0
  0
LINE
  5
AA
330
1F
100
AcDbEntity
  8
0
  6
Continuous
 62
     7
370
    25
100
AcDbLine
 10
210.3480724174
 20
125.1949519231
 30
0.0
 11
196.3480724174
 21
125.1949519231
 31
0.0
  0
LINE
  5
AB
330
1F
100
AcDbEntity
  8
0
  6
Continuous
 62
     7
370
    25
100
AcDbLine
 10
261.3480724174
 20
125.1949519231
 30
0.0
 11
247.3480724174
 21
125.1949519231
 31
0.0
  0
LINE
  5
AC
330
1F
100
AcDbEntity
  8
0
  6
Continuous
 62
     1
370
    25
100
AcDbLine
 10
216.3480724174
 20
95.8949519231
 30
0.0
 11
216.3480724174
 21
111.8949519231
 31
0.0
  0
LINE
  5
AD
330
1F
100
AcDbEntity
  8
0
  6
Continuous
 62
     1
370
    25
100
AcDbLine
 10
216.3480724174
 20
79.8949519231
 30
0.0
 11
216.3480724174
 21
95.8949519231
 31
0.0
  0
LINE
  5
AE
330
1F
100
AcDbEntity
  8
0
  6
Continuous
 62
     1
370
    25
100
AcDbLine
 10
241.3480724174
 20
95.8949519231
 30
0.0
 11
241.3480724174
 21
111.8949519231
 31
0.0
  0
LINE
  5
AF
330
1F
100
AcDbEntity
  8
0
  6
Continuous
 62
     1
370
    25
100
AcDbLine
 10
241.3480724174
 20
79.8949519231
 30
0.0
 11
241.3480724174
 21
95.8949519231
 31
0.0
  0
ARC
  5
B0
330
1F
100
AcDbEntity
  8
0
  6
Continuous
 62
     7
370
    25
100
AcDbCircle
 10
427.6070913462
 20
183.7254717908
 30
0.0
 40
312.9999999999988
100
AcDbArc
 50
180.0
 51
184.5812200853
  0
ARC
  5
B1
330
1F
100
AcDbEntity
  8
0
  6
Continuous
 62
     7
370
    25
100
AcDbCircle
 10
-166.3929086538
 20
183.7254717908
 30
0.0
 40
312.9999999999989
100
AcDbArc
 50
355.4187799147
 51
0.0
  0
LINE
  5
B2
330
1F
100
AcDbEntity
  8
0
  6
Continuous
 62
     7
370
    25
100
AcDbLine
 10
146.6070913462
 20
183.7254717908
 30
0.0
 11
146.6070913462
 21
208.7254717908
 31
0.0
  0
LINE
  5
B3
330
1F
100
AcDbEntity
  8
0
  6
Continuous
 62
     7
370
    25
100
AcDbLine
 10
114.6070913462
 20
208.7254717908
 30
0.0
 11
114.6070913462
 21
183.7254717908
 31
0.0
  0
ARC
  5
B4
330
1F
100
AcDbEntity
  8
0
  6
Continuous
 62
     7
370
    25
100
AcDbCircle
 10
427.6070913462
 20
208.7254717908
 30
0.0
 40
312.9999999999988
100
AcDbArc
 50
175.4187799147
 51
180.0
  0
ARC
  5
B5
330
1F
100
AcDbEntity
  8
0
  6
Continuous
 62
     7
370
    25
100
AcDbCircle
 10
-166.3929086538
 20
208.7254717908
 30
0.0
 40
312.9999999999989
100
AcDbArc
 50
0.0
 51
4.5812200853
  0
LINE
  5
B6
330
1F
100
AcDbEntity
  8
0
  6
Continuous
 62
     7
370
    25
100
AcDbLine
 10
145.6070913462
 20
158.7254717908
 30
0.0
 11
115.6070913462
 21
158.7254717908
 31
0.0
  0
LINE
  5
B7
330
1F
100
AcDbEntity
  8
0
  6
Continuous
 62
     7
370
    25
100
AcDbLine
 10
145.6070913462
 20
233.7254717908
 30
0.0
 11
115.6070913462
 21
233.7254717908
 31
0.0
  0
LINE
  5
B8
330
1F
100
AcDbEntity
  8
0
  6
Continuous
 62
     1
370
    25
100
AcDbLine
 10
146.6070913462
 20
183.7254717908
 30
0.0
 11
114.6070913462
 21
183.7254717908
 31
0.0
  0
LINE
  5
B9
330
1F
100
AcDbEntity
  8
0
  6
Continuous
 62
     1
370
    25
100
AcDbLine
 10
146.6070913462
 20
208.7254717908
 30
0.0
 11
114.6070913462
 21
208.7254717908
 31
0.0
  0
ARC
  5
BA
330
1F
100
AcDbEntity
  8
0
  6
Continuous
 62
     7
370
    25
100
AcDbCircle
 10
46.8409655614
 20
392.8949519231
 30
0.0
 40
312.9999999999989
100
AcDbArc
 50
270.0
 51
274.5812200853
  0
ARC
  5
BB
330
1F
100
AcDbEntity
  8
0
  6
Continuous
 62
     7
370
    25
100
AcDbCircle
 10
46.8409655614
 20
-201.1050480769
 30
0.0
 40
312.9999999999988
100
AcDbArc
 50
88.8994942589
 51
90.0
  0
ARC
  5
BC
330
1F
100
AcDbEntity
  8
0
  6
Continuous
 62
     7
370
    25
100
AcDbCircle
 10
46.8409655614
 20
-201.1050480769
 30
0.0
 40
312.9999999999988
100
AcDbArc
 50
85.4187799147
 51
86.3377192732
  0
LINE
  5
BD
330
1F
100
AcDbEntity
  8
0
  6
Continuous
 62
     7
370
    25
100
AcDbLine
 10
46.8409655614
 20
111.8949519231
 30
0.0
 11
21.8409655614
 21
111.8949519231
 31
0.0
  0
LINE
  5
BE
330
1F
100
AcDbEntity
  8
0
  6
Continuous
 62
     7
370
    25
100
AcDbLine
 10
21.8409655614
 20
79.8949519231
 30
0.0
 11
46.8409655614
 21
79.8949519231
 31
0.0
  0
ARC
  5
BF
330
1F
100
AcDbEntity
  8
0
  6
Continuous
 62
     7
370
    25
100
AcDbCircle
 10
21.8409655614
 20
392.8949519231
 30
0.0
 40
312.9999999999989
100
AcDbArc
 50
265.4187799147
 51
270.0
  0
ARC
  5
C0
330
1F
100
AcDbEntity
  8
0
  6
Continuous
 62
     7
370
    25
100
AcDbCircle
 10
21.8409655614
 20
-201.1050480769
 30
0.0
 40
312.9999999999989
100
AcDbArc
 50
93.65962912
 51
94.5812200853
  0
ARC
  5
C1
330
1F
100
AcDbEntity
  8
0
  6
Continuous
 62
     7
370
    25
100
AcDbCircle
 10
21.8409655614
 20
-201.1050480769
 30
0.0
 40
312.9999999999988
100
AcDbArc
 50
90.0
 51
91.1023159828
  0
LINE
  5
C2
330
1F
100
AcDbEntity
  8
0
  6
Continuous
 62
     7
370
    25
100
AcDbLine
 10
66.8409655614
 20
111.2525269477
 30
0.0
 11
66.8409655614
 21
125.1949519231
 31
0.0
  0
LINE
  5
C3
330
1F
100
AcDbEntity
  8
0
  6
Continuous
 62
     7
370
    25
100
AcDbLine
 10
52.8409655614
 20
125.1949519231
 30
0.0
 11
52.8409655614
 21
111.8322239012
 31
0.0
  0
LINE
  5
C4
330
1F
100
AcDbEntity
  8
0
  6
Continuous
 62
     7
370
    25
100
AcDbLine
 10
15.8409655614
 20
111.8276649824
 30
0.0
 11
15.8409655614
 21
125.1949519231
 31
0.0
  0
LINE
  5
C5
330
1F
100
AcDbEntity
  8
0
  6
Continuous
 62
     7
370
    25
100
AcDbLine
 10
1.8409655614
 20
125.1949519231
 30
0.0
 11
1.8409655614
 21
111.2466877711
 31
0.0
  0
LINE
  5
C6
330
1F
100
AcDbEntity
  8
0
  6
Continuous
 62
     7
370
    25
100
AcDbLine
 10
71.8409655614
 20
110.8949519231
 30
0.0
 11
71.8409655614
 21
80.8949519231
 31
0.0
  0
SPLINE
  5
C7
330
1F
100
AcDbEntity
  8
0
  6
Continuous
 62
     7
370
    25
100
AcDbSpline
210
0.0
220
0.0
230
1.0
 70
     8
 71
     3
 72
    12
 73
     8
 74
     0
 42
0.00000001
 43
0.00000001
 40
0.0
 40
0.0
 40
0.0
 40
0.0
 40
0.2060356894695387
 40
0.4177034958491678
 40
0.6238503492669528
 40
0.8367570514475439
 40
0.9999999999999999
 40
0.9999999999999999
 40
0.9999999999999999
 40
0.9999999999999999
 10
54.99538290861344
 20
110.9645006908577
 30
0.0
 10
54.73265947856366
 20
111.0597884810766
 30
0.0
 10
54.20003090602938
 20
111.2529688140018
 30
0.0
 10
53.58740086713885
 20
111.5068496806672
 30
0.0
 10
53.1354999433274
 20
111.7032963700045
 30
0.0
 10
52.87758573810173
 20
111.820636726472
 30
0.0
 10
52.8600526589759
 20
111.8286955802539
 30
0.0
 10
52.85244358230088
 20
111.8321929942505
 30
0.0
  0
SPLINE
  5
C8
330
1F
100
AcDbEntity
  8
0
  6
Continuous
 62
     7
370
    25
100
AcDbSpline
210
0.0
220
0.0
230
1.0
 70
     8
 71
     3
 72
    22
 73
    18
 74
     0
 42
0.00000001
 43
0.00000001
 40
0.0
 40
0.0
 40
0.0
 40
0.0
 40
0.0605340109394038
 40
0.1291278626090034
 40
0.1953572319765316
 40
0.2633096487861259
 40
0.3333863841678655
 40
0.4053332702648155
 40
0.4781276390235572
 40
0.5532595257853424
 40
0.6220792864492104
 40
0.6932149024718754
 40
0.7573250964318817
 40
0.8231805811344594
 40
0.8897128518168526
 40
0.9578613097161465
 40
1.0
 40
1.0
 40
1.0
 40
1.0
 10
66.83377410945741
 20
111.2525161386675
 30
0.0
 10
66.82281351676211
 20
111.248193768249
 30
0.0
 10
66.79943297604282
 20
111.2389735225577
 30
0.0
 10
66.54761256099734
 20
111.1416830742209
 30
0.0
 10
66.13594686121861
 20
110.99025288276
 30
0.0
 10
65.56350532142099
 20
110.7948592837656
 30
0.0
 10
64.82980305612209
 20
110.5717678818353
 30
0.0
 10
63.9423804219391
 20
110.3449681284007
 30
0.0
 10
62.91209209890282
 20
110.1435090230508
 30
0.0
 10
61.79781635508687
 20
110.0051889751817
 30
0.0
 10
60.63074513073792
 20
109.9507625214594
 30
0.0
 10
59.50088271089972
 20
109.987103234371
 30
0.0
 10
58.40382305681306
 20
110.1053084653561
 30
0.0
 10
57.37381154413272
 20
110.2871667702306
 30
0.0
 10
56.3926236192403
 20
110.5233816082238
 30
0.0
 10
55.59924705655568
 20
110.758424169269
 30
0.0
 10
55.16232339954058
 20
110.9075300695685
 30
0.0
 10
54.99538290861345
 20
110.9645006908577
 30
0.0
  0
LINE
  5
C9
330
1F
100
AcDbEntity
  8
0
  6
Continuous
 62
     7
370
    25
100
AcDbLine
 10
-3.1590344386
 20
110.8949519231
 30
0.0
 11
-3.1590344386
 21
80.8949519231
 31
0.0
  0
SPLINE
  5
CA
330
1F
100
AcDbEntity
  8
0
  6
Continuous
 62
     7
370
    25
100
AcDbSpline
210
0.0
220
0.0
230
1.0
 70
     8
 71
     3
 72
    13
 73
     9
 74
     0
 42
0.00000001
 43
0.00000001
 40
0.0
 40
0.0
 40
0.0
 40
0.0
 40
0.1869310624296713
 40
0.3791521183037492
 40
0.5661195481005296
 40
0.7589339182711792
 40
0.938314317120846
 40
1.0
 40
1.0
 40
1.0
 40
1.0
 10
4.498084968124302
 20
110.4106295005319
 30
0.0
 10
4.203771621878009
 20
110.486250731403
 30
0.0
 10
3.606816106706063
 20
110.6396332110234
 30
0.0
 10
2.898244650171765
 20
110.8681145568504
 30
0.0
 10
2.338446828890249
 20
111.0649494242777
 30
0.0
 10
1.991544132888469
 20
111.1964160928241
 30
0.0
 10
1.832907150594254
 20
111.2584617311675
 30
0.0
 10
1.856932539841267
 20
111.2490787859926
 30
0.0
 10
1.863080325259739
 20
111.2466778120506
 30
0.0
  0
SPLINE
  5
CB
330
1F
100
AcDbEntity
  8
0
  6
Continuous
 62
     7
370
    25
100
AcDbSpline
210
0.0
220
0.0
230
1.0
 70
     8
 71
     3
 72
    22
 73
    18
 74
     0
 42
0.00000001
 43
0.00000001
 40
0.0
 40
0.0
 40
0.0
 40
0.0
 40
0.0332479698894605
 40
0.1042374613945627
 40
0.1712476930793508
 40
0.2400007853707514
 40
0.3110346263782212
 40
0.3838372480126358
 40
0.4604572628202321
 40
0.5392938729129568
 40
0.6155008167883425
 40
0.6943777864917341
 40
0.7635985189935619
 40
0.8349972476138492
 40
0.9018265952768977
 40
0.9703577502300685
 40
1.0
 40
1.0
 40
1.0
 40
1.0
 10
15.81961402332434
 20
111.827664913701
 30
0.0
 10
15.82394243489541
 20
111.8296447210339
 30
0.0
 10
15.83751266596639
 20
111.8358517192692
 30
0.0
 10
15.67306524950877
 20
111.7606305554408
 30
0.0
 10
15.34575959787809
 20
111.6150330028213
 30
0.0
 10
14.86034868202587
 20
111.4083801287628
 30
0.0
 10
14.22174494490098
 20
111.1546090164837
 30
0.0
 10
13.42445081391385
 20
110.8678591629086
 30
0.0
 10
12.47274226983479
 20
110.5719453072205
 30
0.0
 10
11.3937630943781
 20
110.3025868747732
 30
0.0
 10
10.21654503250276
 20
110.0927887801204
 30
0.0
 10
9.03458860971284
 20
109.9760138582091
 30
0.0
 10
7.869526276179709
 20
109.9542932318348
 30
0.0
 10
6.793363078909817
 20
110.0156412853966
 30
0.0
 10
5.779060821491436
 20
110.1452082189163
 30
0.0
 10
5.027997254097378
 20
110.2870858166263
 30
0.0
 10
4.620979087778684
 20
110.3819779808855
 30
0.0
 10
4.498084968124306
 20
110.4106295005319
 30
0.0
  0
LINE
  5
CC
330
1F
100
AcDbEntity
  8
0
  6
Continuous
 62
     7
370
    25
100
AcDbLine
 10
66.8409655614
 20
125.1949519231
 30
0.0
 11
52.8409655614
 21
125.1949519231
 31
0.0
  0
LINE
  5
CD
330
1F
100
AcDbEntity
  8
0
  6
Continuous
 62
     7
370
    25
100
AcDbLine
 10
15.8409655614
 20
125.1949519231
 30
0.0
 11
1.8409655614
 21
125.1949519231
 31
0.0
  0
LINE
  5
CE
330
1F
100
AcDbEntity
  8
0
  6
Continuous
 62
     1
370
    25
100
AcDbLine
 10
46.8409655614
 20
111.8949519231
 30
0.0
 11
46.8409655614
 21
79.8949519231
 31
0.0
  0
LINE
  5
CF
330
1F
100
AcDbEntity
  8
0
  6
Continuous
 62
     1
370
    25
100
AcDbLine
 10
21.8409655614
 20
111.8949519231
 30
0.0
 11
21.8409655614
 21
79.8949519231
 31
0.0
  0
ARC
  5
D0
330
1F
100
AcDbEntity
  8
0
  6
Continuous
 62
     7
370
    25
100
AcDbCircle
 10
-166.3929086538
 20
23.1977572476
 30
0.0
 40
312.9999999999989
100
AcDbArc
 50
0.0
 51
4.5812200853
  0
ARC
  5
D1
330
1F
100
AcDbEntity
  8
0
  6
Continuous
 62
     7
370
    25
100
AcDbCircle
 10
427.6070913462
 20
23.1977572476
 30
0.0
 40
312.9999999999988
100
AcDbArc
 50
175.4187799147
 51
180.0
  0
LINE
  5
D2
330
1F
100
AcDbEntity
  8
0
  6
Continuous
 62
     7
370
    25
100
AcDbLine
 10
114.6070913462
 20
23.1977572476
 30
0.0
 11
114.6070913462
 21
-1.8022427524
 31
0.0
  0
LINE
  5
D3
330
1F
100
AcDbEntity
  8
0
  6
Continuous
 62
     7
370
    25
100
AcDbLine
 10
146.6070913462
 20
-1.8022427524
 30
0.0
 11
146.6070913462
 21
23.1977572476
 31
0.0
  0
ARC
  5
D4
330
1F
100
AcDbEntity
  8
0
  6
Continuous
 62
     7
370
    25
100
AcDbCircle
 10
-166.3929086538
 20
-1.8022427524
 30
0.0
 40
312.9999999999989
100
AcDbArc
 50
355.4187799147
 51
0.0
  0
ARC
  5
D5
330
1F
100
AcDbEntity
  8
0
  6
Continuous
 62
     7
370
    25
100
AcDbCircle
 10
427.6070913462
 20
-1.8022427524
 30
0.0
 40
312.9999999999988
100
AcDbArc
 50
180.0
 51
184.5812200853
  0
CIRCLE
  5
D6
330
1F
100
AcDbEntity
  8
0
  6
Continuous
 62
     7
370
    25
100
AcDbCircle
 10
130.6070913462
 20
36.1977572476
 30
0.0
 40
5.000000000000007
  0
CIRCLE
  5
D7
330
1F
100
AcDbEntity
  8
0
  6
Continuous
 62
     7
370
    25
100
AcDbCircle
 10
130.6070913462
 20
36.1977572476
 30
0.0
 40
7.000000000000014
  0
CIRCLE
  5
D8
330
1F
100
AcDbEntity
  8
0
  6
Continuous
 62
     7
370
    25
100
AcDbCircle
 10
130.6070913462
 20
-14.8022427524
 30
0.0
 40
7.000000000000017
  0
CIRCLE
  5
D9
330
1F
100
AcDbEntity
  8
0
  6
Continuous
 62
     7
370
    25
100
AcDbCircle
 10
130.6070913462
 20
-14.8022427524
 30
0.0
 40
5.000000000000009
  0
LINE
  5
DA
330
1F
100
AcDbEntity
  8
0
  6
Continuous
 62
     7
370
    25
100
AcDbLine
 10
115.6070913462
 20
48.1977572476
 30
0.0
 11
145.6070913462
 21
48.1977572476
 31
0.0
  0
LINE
  5
DB
330
1F
100
AcDbEntity
  8
0
  6
Continuous
 62
     7
370
    25
100
AcDbLine
 10
115.6070913462
 20
-26.8022427524
 30
0.0
 11
145.6070913462
 21
-26.8022427524
 31
0.0
  0
LINE
  5
DC
330
1F
100
AcDbEntity
  8
0
  6
Continuous
 62
     1
370
    25
100
AcDbLine
 10
114.6070913462
 20
23.1977572476
 30
0.0
 11
146.6070913462
 21
23.1977572476
 31
0.0
  0
LINE
  5
DD
330
1F
100
AcDbEntity
  8
0
  6
Continuous
 62
     1
370
    25
100
AcDbLine
 10
114.6070913462
 20
-1.8022427524
 30
0.0
 11
146.6070913462
 21
-1.8022427524
 31
0.0
  0
INSERT
  5
E9
330
1F
100
AcDbEntity
  8
FORMAT
 62
     7
100
AcDbBlockReference
  2
SW_CENTERMARKSYMBOL_1
 10
130.6070913462
 20
36.1977572476
 30
0.0
  0
INSERT
  5
F5
330
1F
100
AcDbEntity
  8
FORMAT
 62
     7
100
AcDbBlockReference
  2
SW_CENTERMARKSYMBOL_2
 10
130.6070913462
 20
-14.8022427524
 30
0.0
  0
SPLINE
  5
F6
330
1F
100
AcDbEntity
  8
0
  6
Continuous
 62
     7
370
    25
100
AcDbSpline
210
0.0
220
0.0
230
1.0
 70
     8
 71
     3
 72
    11
 73
     7
 74
     0
 42
0.00000001
 43
0.00000001
 40
0.0
 40
0.0
 40
0.0
 40
0.0
 40
0.223247250794877
 40
0.5311360554541417
 40
0.8387524700877915
 40
1.0
 40
1.0
 40
1.0
 40
1.0
 10
193.6347552321425
 20
19.74904326497868
 30
0.0
 10
192.9227298689826
 20
19.29364820584082
 30
0.0
 10
191.2287231503085
 20
18.21020043874591
 30
0.0
 10
188.5932323062827
 20
16.44257779810887
 30
0.0
 10
186.1719497776201
 20
14.77937547893598
 30
0.0
 10
184.734352401866
 20
13.74515314613109
 30
0.0
 10
184.2399466610424
 20
13.38947257293974
 30
0.0
  0
SPLINE
  5
F7
330
1F
100
AcDbEntity
  8
0
  6
Continuous
 62
     7
370
    25
100
AcDbSpline
210
0.0
220
0.0
230
1.0
 70
     8
 71
     3
 72
    14
 73
    10
 74
     0
 42
0.00000001
 43
0.00000001
 40
0.0
 40
0.0
 40
0.0
 40
0.0
 40
0.0729936874942813
 40
0.2403367911076381
 40
0.4077209364906703
 40
0.5751246955479807
 40
0.7425272079402048
 40
0.909908064709568
 40
0.9999999999999999
 40
0.9999999999999999
 40
0.9999999999999999
 40
0.9999999999999999
 10
199.207364968044
 20
-12.53780764548655
 30
0.0
 10
199.6710962114126
 20
-12.32941033665157
 30
0.0
 10
201.1979635720499
 20
-11.64324770807101
 30
0.0
 10
203.7659935237999
 20
-10.42252869630789
 30
0.0
 10
206.9103748622783
 20
-8.877863538502572
 30
0.0
 10
210.0302175151759
 20
-7.278278542999505
 30
0.0
 10
213.1235245308033
 20
-5.625498684936225
 30
0.0
 10
215.7223658013842
 20
-4.1916230005212
 30
0.0
 10
217.278445132222
 20
-3.289483072514337
 30
0.0
 10
217.8229306184712
 20
-2.973816584546034
 30
0.0
  0
LINE
  5
F8
330
1F
100
AcDbEntity
  8
0
  6
Continuous
 62
     7
370
    25
100
AcDbLine
 10
207.6347552321
 20
17.9037617273
 30
0.0
 11
207.6347552321
 21
29.4947682264
 31
0.0
  0
LINE
  5
F9
330
1F
100
AcDbEntity
  8
0
  6
Continuous
 62
     7
370
    25
100
AcDbLine
 10
193.6347552321
 20
29.4947682264
 30
0.0
 11
193.6347552321
 21
17.5514484808
 31
0.0
  0
LINE
  5
FA
330
1F
100
AcDbEntity
  8
0
  6
Continuous
 62
     7
370
    25
100
AcDbLine
 10
219.5054630561
 20
34.9386583609
 30
0.0
 11
207.6347552321
 21
28.0858446003
 31
0.0
  0
LINE
  5
FB
330
1F
100
AcDbEntity
  8
0
  6
Continuous
 62
     7
370
    25
100
AcDbLine
 10
217.8264932487
 20
-2.9800066331
 30
0.0
 11
235.5041627783
 21
7.2250947647
 31
0.0
  0
SPLINE
  5
FC
330
1F
100
AcDbEntity
  8
0
  6
Continuous
 62
     7
370
    25
100
AcDbSpline
210
0.0
220
0.0
230
1.0
 70
     8
 71
     3
 72
    11
 73
     7
 74
     0
 42
0.00000001
 43
0.00000001
 40
0.0
 40
0.0
 40
0.0
 40
0.0
 40
0.2319393114607211
 40
0.5345581041347146
 40
0.8371377492567079
 40
1.0
 40
1.0
 40
1.0
 40
1.0
 10
229.6972010726565
 20
40.45389085876984
 30
0.0
 10
228.8989455382576
 20
40.0478130669952
 30
0.0
 10
227.059179944422
 20
39.11191232151495
 30
0.0
 10
224.2089504790411
 20
37.58304350009386
 30
0.0
 10
221.6095269433721
 20
36.15040834343586
 30
0.0
 10
220.053493399486
 20
35.24816868770706
 30
0.0
 10
219.5090234507328
 20
34.9324670236601
 30
0.0
  0
SPLINE
  5
FD
330
1F
100
AcDbEntity
  8
0
  6
Continuous
 62
     7
370
    25
100
AcDbSpline
210
0.0
220
0.0
230
1.0
 70
     8
 71
     3
 72
    14
 73
    10
 74
     0
 42
0.00000001
 43
0.00000001
 40
0.0
 40
0.0
 40
0.0
 40
0.0
 40
0.0772485072141984
 40
0.2445289041189356
 40
0.411721636706097
 40
0.5788067010399232
 40
0.7457642038581366
 40
0.9125739989397826
 40
1.0
 40
1.0
 40
1.0
 40
1.0
 10
235.500600148135
 20
7.231284813237839
 30
0.0
 10
235.9687270548424
 20
7.499737503211496
 30
0.0
 10
237.4505752304758
 20
8.349520165095395
 30
0.0
 10
239.9146085600761
 20
9.833255214602211
 30
0.0
 10
242.89161482936
 20
11.67906228468316
 30
0.0
 10
245.8338213335455
 20
13.57359104475397
 30
0.0
 10
248.7394624839177
 20
15.51498272383953
 30
0.0
 10
251.159845669676
 20
17.17935246041918
 30
0.0
 10
252.5974343733958
 20
18.21342635420958
 30
0.0
 10
253.0917889585598
 20
18.56902122600495
 30
0.0
  0
LINE
  5
FE
330
1F
100
AcDbEntity
  8
0
  6
Continuous
 62
     7
370
    25
100
AcDbLine
 10
243.6972010727
 20
38.3692486669
 30
0.0
 11
243.6972010727
 21
50.3131750779
 31
0.0
  0
LINE
  5
FF
330
1F
100
AcDbEntity
  8
0
  6
Continuous
 62
     7
370
    25
100
AcDbLine
 10
229.6972010727
 20
50.3131750779
 30
0.0
 11
229.6972010727
 21
38.7225641571
 31
0.0
  0
LWPOLYLINE
  5
100
330
1F
100
AcDbEntity
  8
0
  6
Continuous
 62
     7
370
    25
100
AcDbPolyline
 90
       97
 70
   128
 43
0.0
 10
181.5428721401
 20
6.7947346059
 10
181.5655816886
 20
7.5826895263
 10
181.6336130882
 20
8.3410504161
 10
181.746675018
 20
9.0665698578
 10
181.9042833295
 20
9.7561410655
 10
182.1057631198
 20
10.4068111897
 10
182.3502516213
 20
11.0157939608
 10
182.6367018969
 20
11.5804816212
 10
182.9638873225
 20
12.0984560916
 10
183.3304068398
 20
12.5674993258
 10
183.7346909559
 20
12.9856028087
 10
184.1750084644
 20
13.350976157
 10
184.6494738579
 20
13.6620547859
 10
185.1560554028
 20
13.9175066089
 10
185.6925838393
 20
14.1162377422
 10
186.25676167
 20
14.2573971885
 10
186.846172999
 20
14.3403804814
 10
187.4582938765
 20
14.3648322736
 10
188.0905031068
 20
14.330647859
 10
188.7400934731
 20
14.2379736203
 10
189.4042833295
 20
14.0872064029
 10
190.0802285133
 20
13.8789918152
 10
190.7650345233
 20
13.6142214639
 10
191.4557689151
 20
13.2940291365
 10
192.1494738579
 20
12.9197859455
 10
192.8431788007
 20
12.4930944578
 10
193.5339131925
 20
12.0157818319
 10
194.2187192025
 20
11.4898919937
 10
194.8946643863
 20
10.9176768842
 10
195.5588542428
 20
10.3015868163
 10
196.208444609
 20
9.6442599823
 10
196.8406538393
 20
8.9485111567
 10
197.4527747168
 20
8.2173196427
 10
198.0421860458
 20
7.4538165146
 10
198.6063638766
 20
6.6612712101
 10
199.142892313
 20
5.8430775298
 10
199.6494738579
 20
5.0027391046
 10
200.1239392514
 20
4.1438543927
 10
200.5642567599
 20
3.2701012704
 10
200.968540876
 20
2.3852212825
 10
201.3350603933
 20
1.4930036212
 10
201.6622458189
 20
0.5972688993
 10
201.9486960945
 20
-0.2981472096
 10
202.193184596
 20
-1.1894103961
 10
202.3946643863
 20
-2.0727041345
 10
202.5522726978
 20
-2.9442460254
 10
202.6653346277
 20
-3.8003039926
 10
202.7333660272
 20
-4.6372122645
 10
202.7560755757
 20
-5.4513870714
 10
202.7333660272
 20
-6.2393419918
 10
202.6653346277
 20
-6.9977028817
 10
202.5522726978
 20
-7.7232223233
 10
202.3946643863
 20
-8.4127935311
 10
202.193184596
 20
-9.0634636552
 10
201.9486960945
 20
-9.6724464263
 10
201.6622458189
 20
-10.2371340867
 10
201.3350603933
 20
-10.7551085571
 10
200.968540876
 20
-11.2241517913
 10
200.5642567599
 20
-11.6422552742
 10
200.1239392514
 20
-12.0076286225
 10
199.6494738579
 20
-12.3187072514
 10
199.142892313
 20
-12.5741590744
 10
198.6063638766
 20
-12.7728902077
 10
198.0421860458
 20
-12.914049654
 10
197.4527747168
 20
-12.9970329469
 10
196.8406538393
 20
-13.0214847392
 10
196.208444609
 20
-12.9873003245
 10
195.5588542428
 20
-12.8946260858
 10
194.8946643863
 20
-12.7438588684
 10
194.2187192025
 20
-12.5356442807
 10
193.5339131925
 20
-12.2708739295
 10
192.8431788007
 20
-11.950681602
 10
192.1494738579
 20
-11.5764384111
 10
191.4557689151
 20
-11.1497469234
 10
190.7650345233
 20
-10.6724342975
 10
190.0802285133
 20
-10.1465444592
 10
189.4042833295
 20
-9.5743293497
 10
188.7400934731
 20
-8.9582392818
 10
188.0905031068
 20
-8.3009124479
 10
187.4582938765
 20
-7.6051636222
 10
186.846172999
 20
-6.8739721082
 10
186.25676167
 20
-6.1104689801
 10
185.6925838393
 20
-5.3179236756
 10
185.1560554028
 20
-4.4997299953
 10
184.6494738579
 20
-3.6593915701
 10
184.1750084644
 20
-2.8005068583
 10
183.7346909559
 20
-1.9267537359
 10
183.3304068398
 20
-1.0418737481
 10
182.9638873225
 20
-0.1496560867
 10
182.6367018969
 20
0.7460786352
 10
182.3502516213
 20
1.641494744
 10
182.1057631198
 20
2.5327579305
 10
181.9042833295
 20
3.416051669
 10
181.746675018
 20
4.2875935599
 10
181.6336130882
 20
5.1436515271
 10
181.5655816886
 20
5.980559799
 10
181.5428721401
 20
6.7947346059
  0
SPLINE
  5
101
330
1F
100
AcDbEntity
  8
0
  6
Continuous
 62
     7
370
    25
100
AcDbSpline
210
0.0
220
0.0
230
1.0
 70
     8
 71
     3
 72
    18
 73
    14
 74
     0
 42
0.00000001
 43
0.00000001
 40
0.0
 40
0.0
 40
0.0
 40
0.0
 40
0.1013809236117089
 40
0.2027560599072205
 40
0.3043190130054978
 40
0.4058443218838223
 40
0.5033129153817321
 40
0.6007743500669316
 40
0.6933310864588759
 40
0.7859114959950071
 40
0.8806410628166849
 40
0.9753902624965257
 40
1.0
 40
1.0
 40
1.0
 40
1.0
 10
201.4458453006175
 20
13.40897031742239
 30
0.0
 10
201.0505579077757
 20
13.45639918327274
 30
0.0
 10
200.2600056870191
 20
13.5512542075031
 30
0.0
 10
199.0775753467129
 20
13.83964267418999
 30
0.0
 10
197.9355116754789
 20
14.20696470340407
 30
0.0
 10
196.8765946152157
 20
14.63595102318199
 30
0.0
 10
195.9363911390427
 20
15.09937956567057
 30
0.0
 10
195.1472912181764
 20
15.57095853717219
 30
0.0
 10
194.5206013755574
 20
16.04066693051947
 30
0.0
 10
194.0474455992972
 20
16.50518518617195
 30
0.0
 10
193.75526039141
 20
16.96790851295192
 30
0.0
 10
193.6202547586116
 20
17.31579368592061
 30
0.0
 10
193.6476199128674
 20
17.51077913525222
 30
0.0
 10
193.6532621318655
 20
17.5509817446109
 30
0.0
  0
SPLINE
  5
102
330
1F
100
AcDbEntity
  8
0
  6
Continuous
 62
     7
370
    25
100
AcDbSpline
210
0.0
220
0.0
230
1.0
 70
     8
 71
     3
 72
    17
 73
    13
 74
     0
 42
0.00000001
 43
0.00000001
 40
0.0
 40
0.0
 40
0.0
 40
0.0
 40
0.050769296245827
 40
0.1705358430734018
 40
0.2902629517555321
 40
0.4097495099893805
 40
0.5291709777789992
 40
0.6374758856647053
 40
0.7457981960782949
 40
0.8500469085985042
 40
0.9543319564195797
 40
1.0
 40
1.0
 40
1.0
 40
1.0
 10
207.6127673156091
 20
17.90367297444946
 30
0.0
 10
207.6175565686844
 20
17.77147709056598
 30
0.0
 10
207.6336438373939
 20
17.32742648959363
 30
0.0
 10
207.4532575590003
 20
16.57339621685118
 30
0.0
 10
207.0726553097572
 20
15.69137436466272
 30
0.0
 10
206.4801708601239
 20
14.90546362400337
 30
0.0
 10
205.7347282653351
 20
14.27031169554724
 30
0.0
 10
204.8652868076829
 20
13.8113401919434
 30
0.0
 10
203.9328072093599
 20
13.51702632907658
 30
0.0
 10
202.9366062112779
 20
13.37546588328279
 30
0.0
 10
202.1005648975827
 20
13.36049269080857
 30
0.0
 10
201.5986905598474
 20
13.39765314371783
 30
0.0
 10
201.4458453006175
 20
13.40897031742239
 30
0.0
  0
LWPOLYLINE
  5
103
330
1F
100
AcDbEntity
  8
0
  6
Continuous
 62
     7
370
    25
100
AcDbPolyline
 90
       66
 70
   128
 43
0.0
 10
205.5845027004
 20
32.3521966178
 10
206.0391150069
 20
32.0630754805
 10
206.4432682623
 20
31.7499747504
 10
206.7931889965
 20
31.4158177646
 10
207.085610094
 20
31.0637244568
 10
207.3178012977
 20
30.6969822275
 10
207.487594701
 20
30.31901525
 10
207.5934049885
 20
29.9333525
 10
207.6342442381
 20
29.5435948069
 10
207.6097311448
 20
29.1533812332
 10
207.5200945808
 20
28.7663550978
 10
207.3661714584
 20
28.3861299596
 10
207.1493989163
 20
28.0162558781
 10
206.8718009015
 20
27.6601862681
 10
206.5359692717
 20
27.3212456555
 10
206.1450395964
 20
27.0025986376
 10
205.7026618807
 20
26.7072203356
 10
205.2129664861
 20
26.4378686172
 10
204.6805255665
 20
26.1970583468
 10
204.1103103794
 20
25.9870379051
 10
203.5076448703
 20
25.8097681962
 10
202.8781559647
 20
25.6669043398
 10
202.227721031
 20
25.5597802171
 10
201.5624130048
 20
25.4893960172
 10
200.8884436878
 20
25.4564088985
 10
200.2121057502
 20
25.4611268527
 10
199.5397139769
 20
25.5035058297
 10
198.8775463087
 20
25.5831501482
 10
198.2317852268
 20
25.6993161908
 10
197.6084600284
 20
25.8509193464
 10
197.0133905329
 20
26.0365441373
 10
196.4521327439
 20
26.2544574347
 10
195.9299269741
 20
26.5026246409
 10
195.4516489181
 20
26.7787286856
 10
195.0217641293
 20
27.0801916597
 10
194.644286326
 20
27.4041988846
 10
194.3227399169
 20
27.7477251921
 10
194.0601270941
 20
28.1075631698
 10
193.8588998028
 20
28.4803531073
 10
193.720936848
 20
28.8626143655
 10
193.6475263526
 20
29.250777874
 10
193.6393537306
 20
29.6412194546
 10
193.6964952877
 20
30.0302936596
 10
193.8184175084
 20
30.4143678079
 10
194.0039820379
 20
30.7898559026
 10
194.2514563102
 20
31.1532521127
 10
194.5585297246
 20
31.5011635056
 10
194.9223352194
 20
31.8303417264
 10
195.3394760408
 20
32.1377133266
 10
195.8060574572
 20
32.4204084606
 10
196.3177231237
 20
32.67578768
 10
196.8696957559
 20
32.9014665778
 10
197.456821734
 20
33.095338051
 10
198.0736192208
 20
33.2555919739
 10
198.7143293446
 20
33.3807320987
 10
199.3729699674
 20
33.4695900259
 10
200.0433915393
 20
33.5213361129
 10
200.7193345147
 20
33.5354872205
 10
201.3944877961
 20
33.5119112235
 10
202.0625476592
 20
33.4508282447
 10
202.7172766091
 20
33.3528085994
 10
203.3525616181
 20
33.2187674706
 10
203.9624712011
 20
33.0499563643
 10
204.5413107967
 20
32.8479514242
 10
205.0836759355
 20
32.6146387161
 10
205.5845027004
 20
32.3521966178
  0
LWPOLYLINE
  5
104
330
1F
100
AcDbEntity
  8
0
  6
Continuous
 62
     7
370
    25
100
AcDbPolyline
 90
       56
 70
   128
 43
0.0
 10
204.1702891381
 20
31.535788506
 10
204.550264087
 20
31.2898258164
 10
204.8791943901
 20
31.0204618059
 10
205.1527919377
 20
30.7312080463
 10
205.3674899674
 20
30.4258354028
 10
205.520489562
 20
30.1083248748
 10
205.6097961379
 20
29.7828156976
 10
205.6342454472
 20
29.453551381
 10
205.5935187558
 20
29.1248243891
 10
205.4881469985
 20
28.8009201808
 10
205.3195038571
 20
28.4860613429
 10
205.0897878531
 20
28.1843525419
 10
204.8019936857
 20
27.8997270133
 10
204.4598731921
 20
27.6358952863
 10
204.0678864362
 20
27.3962968108
 10
203.6311435647
 20
27.1840551194
 10
203.1553381889
 20
27.0019371071
 10
202.6466731595
 20
26.8523169608
 10
202.1117797032
 20
26.7371452078
 10
201.557630974
 20
26.6579232882
 10
200.9914511481
 20
26.6156839806
 10
200.4206212455
 20
26.6109779392
 10
199.8525829069
 20
26.6438665144
 10
199.2947413808
 20
26.7139209534
 10
198.7543689844
 20
26.8202279892
 10
198.2385102985
 20
26.9614017473
 10
197.7538903299
 20
27.1356018116
 10
197.306826841
 20
27.3405572181
 10
196.9031479881
 20
27.5735960595
 10
196.5481163424
 20
27.8316803182
 10
196.2463602843
 20
28.1114454711
 10
196.0018136655
 20
28.4092443517
 10
195.8176645253
 20
28.721194696
 10
195.6963135292
 20
29.0432297544
 10
195.639342673
 20
29.3711513072
 10
195.6474946591
 20
29.7006843957
 10
195.7206632138
 20
30.027533052
 10
195.857894473
 20
30.347436304
 10
196.0573994175
 20
30.6562237236
 10
196.3165771953
 20
30.9498697947
 10
196.6320490275
 20
31.2245463914
 10
196.9997022565
 20
31.4766726845
 10
197.4147439601
 20
31.702961822
 10
197.871763435
 20
31.900463779
 10
198.3648027334
 20
32.0666038154
 10
198.8874343341
 20
32.1992160418
 10
199.4328449349
 20
32.2965716551
 10
199.9939242745
 20
32.3574014758
 10
200.5633578257
 20
32.3809124943
 10
201.1337221512
 20
32.3667982084
 10
201.6975816799
 20
32.3152426196
 10
202.2475856405
 20
32.2269178336
 10
202.7765638901
 20
32.1029752993
 10
203.2776203885
 20
31.945030797
 10
203.7442230977
 20
31.7551433749
 10
204.1702891381
 20
31.535788506
  0
LWPOLYLINE
  5
105
330
1F
100
AcDbEntity
  8
0
  6
Continuous
 62
     7
370
    25
100
AcDbPolyline
 90
       80
 70
   128
 43
0.0
 10
184.9723400289
 20
4.8149449347
 10
184.9950281043
 20
5.4603215716
 10
185.0629488893
 20
6.0754228352
 10
185.1756729669
 20
6.6563598574
 10
185.332487659
 20
7.1994597672
 10
185.5324015327
 20
7.7012889121
 10
185.7741506682
 20
8.1586745668
 10
186.0562066495
 20
8.5687249919
 10
186.376786228
 20
8.9288477165
 10
186.7338625964
 20
9.2367659288
 10
187.1251782028
 20
9.4905328707
 10
187.548259024
 20
9.688544146
 10
188.0004302068
 20
9.8295478636
 10
188.4788329795
 20
9.9126525526
 10
188.9804427256
 20
9.9373327983
 10
189.5020881069
 20
9.9034325645
 10
190.0404711133
 20
9.8111661791
 10
190.5921879141
 20
9.6611169801
 10
191.153750378
 20
9.4542336267
 10
191.7216081263
 20
9.1918241022
 10
192.2921709796
 20
8.875547444
 10
192.8618316557
 20
8.507403255
 10
193.4269885765
 20
8.0897190614
 10
193.9840686379
 20
7.625135597
 10
194.5295498004
 20
7.1165901081
 10
195.0599833564
 20
6.567297783
 10
195.5720157344
 20
5.9807314247
 10
196.0624097006
 20
5.3605994945
 10
196.5280648266
 20
4.7108226661
 10
196.9660370907
 20
4.0355090379
 10
197.3735574913
 20
3.3389281601
 10
197.7480495531
 20
2.6254840413
 10
198.0871456168
 20
1.8996873048
 10
198.3887018079
 20
1.1661266714
 10
198.650811591
 20
0.4294399475
 10
198.8718178237
 20
-0.3057152963
 10
199.0503232335
 20
-1.0346911716
 10
199.1851992517
 20
-1.7528788584
 10
199.2755931487
 20
-2.4557377429
 10
199.320933425
 20
-3.1388241249
 10
199.320933425
 20
-3.7978193123
 10
199.2755931487
 20
-4.4285569254
 10
199.1851992517
 20
-5.027049238
 10
199.0503232335
 20
-5.5895123889
 10
198.8718178237
 20
-6.1123903051
 10
198.650811591
 20
-6.5923771838
 10
198.3887018079
 20
-7.0264383937
 10
198.0871456168
 20
-7.4118296599
 10
197.7480495531
 20
-7.7461144148
 10
197.3735574913
 20
-8.0271792025
 10
196.9660370907
 20
-8.253247041
 10
196.5280648266
 20
-8.4228886566
 10
196.0624097006
 20
-8.5350315203
 10
195.5720157344
 20
-8.588966629
 10
195.0599833564
 20
-8.5843529873
 10
194.5295498004
 20
-8.5212197644
 10
193.9840686379
 20
-8.3999661087
 10
193.4269885765
 20
-8.221358625
 10
192.8618316557
 20
-7.9865265271
 10
192.2921709796
 20
-7.6969544993
 10
191.7216081263
 20
-7.3544733092
 10
191.153750378
 20
-6.961248233
 10
190.5921879141
 20
-6.5197653664
 10
190.0404711133
 20
-6.0328159062
 10
189.5020881069
 20
-5.5034785036
 10
188.9804427256
 20
-4.9350998001
 10
188.4788329795
 20
-4.3312732689
 10
188.0004302068
 20
-3.6958164957
 10
187.548259024
 20
-3.0327470429
 10
187.1251782028
 20
-2.346257049
 10
186.7338625964
 20
-1.6406867249
 10
186.376786228
 20
-0.9204969131
 10
186.0562066495
 20
-0.1902408857
 10
185.7741506682
 20
0.5454644436
 10
185.5324015327
 20
1.281967709
 10
185.332487659
 20
2.0146124995
 10
185.1756729669
 20
2.738766799
 10
185.0629488893
 20
3.4498522708
 10
184.9950281043
 20
4.1433732036
 10
184.9723400289
 20
4.8149449347
  0
LWPOLYLINE
  5
106
330
1F
100
AcDbEntity
  8
0
  6
Continuous
 62
     7
370
    25
100
AcDbPolyline
 90
       40
 70
   128
 43
0.0
 10
243.6972010727
 20
44.2718410179
 10
243.7980431123
 20
44.2295256573
 10
244.4887775041
 20
43.9093333298
 10
245.1824824469
 20
43.5350901389
 10
245.8761873897
 20
43.1083986512
 10
246.5669217815
 20
42.6310860253
 10
247.2517277915
 20
42.105196187
 10
247.9276729753
 20
41.5329810775
 10
248.5918628317
 20
40.9168910096
 10
249.241453198
 20
40.2595641757
 10
249.8736624283
 20
39.5638153501
 10
250.4857833058
 20
38.832623836
 10
251.0751946348
 20
38.069120708
 10
251.6393724655
 20
37.2765754034
 10
252.175900902
 20
36.4583817231
 10
252.6824824469
 20
35.6180432979
 10
253.1569478404
 20
34.7591585861
 10
253.5972653488
 20
33.8854054637
 10
254.001549465
 20
33.0005254759
 10
254.3680689823
 20
32.1083078145
 10
254.6952544079
 20
31.2125730926
 10
254.9817046835
 20
30.3171569838
 10
255.226193185
 20
29.4258937973
 10
255.4276729753
 20
28.5426000589
 10
255.5852812868
 20
27.671058168
 10
255.6983432166
 20
26.8150002007
 10
255.7663746162
 20
25.9780919288
 10
255.7890841647
 20
25.1639171219
 10
255.7663746162
 20
24.3759622016
 10
255.6983432166
 20
23.6176013117
 10
255.5852812868
 20
22.8920818701
 10
255.4276729753
 20
22.2025106623
 10
255.226193185
 20
21.5518405382
 10
254.9817046835
 20
20.942857767
 10
254.6952544079
 20
20.3781701066
 10
254.3680689823
 20
19.8601956362
 10
254.001549465
 20
19.391152402
 10
253.5972653488
 20
18.9730489191
 10
253.1569478404
 20
18.6076755708
 10
253.0945020384
 20
18.5622320638
  0
SPLINE
  5
107
330
1F
100
AcDbEntity
  8
0
  6
Continuous
 62
     7
370
    25
100
AcDbSpline
210
0.0
220
0.0
230
1.0
 70
     8
 71
     3
 72
    17
 73
    13
 74
     0
 42
0.00000001
 43
0.00000001
 40
0.0
 40
0.0
 40
0.0
 40
0.0
 40
0.1058009390308147
 40
0.2115687777364184
 40
0.3177147779486922
 40
0.423813849460996
 40
0.5232872190938622
 40
0.622764831697589
 40
0.7180136094038269
 40
0.8132944512743369
 40
0.913120696590757
 40
1.0
 40
1.0
 40
1.0
 40
1.0
 10
236.8429939483924
 20
34.65329345536882
 30
0.0
 10
236.4559983444337
 20
34.73829999044479
 30
0.0
 10
235.6821282099251
 20
34.90828646589937
 30
0.0
 10
234.5378893958839
 20
35.27504231433594
 30
0.0
 10
233.4437433186544
 20
35.69853950750479
 30
0.0
 10
232.4514560005511
 20
36.15719339139923
 30
0.0
 10
231.5948152852054
 20
36.62507285571031
 30
0.0
 10
230.8961711501887
 20
37.08058503543614
 30
0.0
 10
230.3548299353496
 20
37.52087171533593
 30
0.0
 10
229.9670941371964
 20
37.94861786757361
 30
0.0
 10
229.7344654627796
 20
38.34901197636409
 30
0.0
 10
229.7156816177356
 20
38.60416329247777
 30
0.0
 10
229.7069409703156
 20
38.72289232200694
 30
0.0
  0
SPLINE
  5
108
330
1F
100
AcDbEntity
  8
0
  6
Continuous
 62
     7
370
    25
100
AcDbSpline
210
0.0
220
0.0
230
1.0
 70
     8
 71
     3
 72
    17
 73
    13
 74
     0
 42
0.00000001
 43
0.00000001
 40
0.0
 40
0.0
 40
0.0
 40
0.0
 40
0.1051741553345185
 40
0.2164977607062687
 40
0.3277648794163721
 40
0.43306642581423
 40
0.5383555003527976
 40
0.6361204626363224
 40
0.7339220333584853
 40
0.8352410946818096
 40
0.9365883162779052
 40
1.0
 40
1.0
 40
1.0
 40
1.0
 10
243.6952448657277
 20
38.36933852516755
 30
0.0
 10
243.6783962694866
 20
38.09057524862078
 30
0.0
 10
243.6437139528504
 20
37.51674962627505
 30
0.0
 10
243.3381284488475
 20
36.68952505457142
 30
0.0
 10
242.8532513495169
 20
35.94302739145031
 30
0.0
 10
242.1909563456752
 20
35.33450266104568
 30
0.0
 10
241.4139140378833
 20
34.88596613988181
 30
0.0
 10
240.5402025037497
 20
34.59768632805116
 30
0.0
 10
239.5978943598124
 20
34.4458423622243
 30
0.0
 10
238.5835090535924
 20
34.42732786004224
 30
0.0
 10
237.6523332166667
 20
34.50901280398329
 30
0.0
 10
237.0679202455087
 20
34.61319591663099
 30
0.0
 10
236.8429939483924
 20
34.65329345536882
 30
0.0
  0
LWPOLYLINE
  5
109
330
1F
100
AcDbEntity
  8
0
  6
Continuous
 62
     7
370
    25
100
AcDbPolyline
 90
       66
 70
   128
 43
0.0
 10
231.7474536044
 20
47.4557466865
 10
231.2928412979
 20
47.7448678238
 10
230.8886880425
 20
48.0579685539
 10
230.5387673083
 20
48.3921255397
 10
230.2463462108
 20
48.7442188475
 10
230.0141550071
 20
49.1109610768
 10
229.8443616038
 20
49.4889280544
 10
229.7385513163
 20
49.8745908043
 10
229.6977120667
 20
50.2643484974
 10
229.72222516
 20
50.6545620711
 10
229.811861724
 20
51.0415882065
 10
229.9657848464
 20
51.4218133447
 10
230.1825573885
 20
51.7916874262
 10
230.4601554033
 20
52.1477570362
 10
230.7959870331
 20
52.4866976488
 10
231.1869167084
 20
52.8053446668
 10
231.6292944241
 20
53.1007229687
 10
232.1189898187
 20
53.3700746871
 10
232.6514307383
 20
53.6108849575
 10
233.2216459254
 20
53.8209053993
 10
233.8243114345
 20
53.9981751081
 10
234.4538003401
 20
54.1410389645
 10
235.1042352738
 20
54.2481630872
 10
235.7695433
 20
54.3185472871
 10
236.443512617
 20
54.3515344058
 10
237.1198505546
 20
54.3468164516
 10
237.7922423279
 20
54.3044374747
 10
238.4544099961
 20
54.2247931561
 10
239.100171078
 20
54.1086271135
 10
239.7234962764
 20
53.9570239579
 10
240.3185657719
 20
53.771399167
 10
240.8798235609
 20
53.5534858696
 10
241.4020293307
 20
53.3053186634
 10
241.8803073867
 20
53.0292146187
 10
242.3101921755
 20
52.7277516447
 10
242.6876699788
 20
52.4037444198
 10
243.0092163879
 20
52.0602181122
 10
243.2718292107
 20
51.7003801345
 10
243.473056502
 20
51.327590197
 10
243.6110194568
 20
50.9453289388
 10
243.6844299522
 20
50.5571654304
 10
243.6926025742
 20
50.1667238497
 10
243.6354610171
 20
49.7776496448
 10
243.5135387964
 20
49.3935754965
 10
243.3279742669
 20
49.0180874017
 10
243.0804999946
 20
48.6546911916
 10
242.7734265802
 20
48.3067797987
 10
242.4096210854
 20
47.977601578
 10
241.992480264
 20
47.6702299777
 10
241.5258988476
 20
47.3875348437
 10
241.0142331811
 20
47.1321556243
 10
240.4622605489
 20
46.9064767265
 10
239.8751345708
 20
46.7126052533
 10
239.258337084
 20
46.5523513304
 10
238.6176269602
 20
46.4272112056
 10
237.9589863374
 20
46.3383532784
 10
237.2885647655
 20
46.2866071914
 10
236.6126217901
 20
46.2724560839
 10
235.9374685087
 20
46.2960320809
 10
235.2694086456
 20
46.3571150597
 10
234.6146796957
 20
46.455134705
 10
233.9793946867
 20
46.5891758337
 10
233.3694851037
 20
46.75798694
 10
232.7906455081
 20
46.9599918801
 10
232.2482803693
 20
47.1933045882
 10
231.7474536044
 20
47.4557466865
  0
LWPOLYLINE
  5
10A
330
1F
100
AcDbEntity
  8
0
  6
Continuous
 62
     7
370
    25
100
AcDbPolyline
 90
       56
 70
   128
 43
0.0
 10
233.1616671667
 20
48.2721547983
 10
232.7816922178
 20
48.518117488
 10
232.4527619147
 20
48.7874814985
 10
232.1791643671
 20
49.076735258
 10
231.9644663374
 20
49.3821079015
 10
231.8114667428
 20
49.6996184295
 10
231.7221601669
 20
50.0251276068
 10
231.6977108576
 20
50.3543919233
 10
231.738437549
 20
50.6831189153
 10
231.8438093063
 20
51.0070231235
 10
232.0124524477
 20
51.3218819614
 10
232.2421684517
 20
51.6235907624
 10
232.5299626191
 20
51.908216291
 10
232.8720831127
 20
52.172048018
 10
233.2640698686
 20
52.4116464935
 10
233.7008127401
 20
52.6238881849
 10
234.1766181159
 20
52.8060061972
 10
234.6852831453
 20
52.9556263435
 10
235.2201766016
 20
53.0707980965
 10
235.7743253308
 20
53.1500200162
 10
236.3405051567
 20
53.1922593237
 10
236.9113350593
 20
53.1969653651
 10
237.4793733979
 20
53.1640767899
 10
238.037214924
 20
53.094022351
 10
238.5775873203
 20
52.9877153151
 10
239.0934460063
 20
52.8465415571
 10
239.5780659749
 20
52.6723414927
 10
240.0251294638
 20
52.4673860862
 10
240.4288083167
 20
52.2343472448
 10
240.7838399624
 20
51.9762629861
 10
241.0855960205
 20
51.6964978332
 10
241.3301426393
 20
51.3986989527
 10
241.5142917795
 20
51.0867486083
 10
241.6356427756
 20
50.76471355
 10
241.6926136318
 20
50.4367919971
 10
241.6844616457
 20
50.1072589086
 10
241.611293091
 20
49.7804102524
 10
241.4740618318
 20
49.4605070003
 10
241.2745568873
 20
49.1517195807
 10
241.0153791095
 20
48.8580735097
 10
240.6999072773
 20
48.5833969129
 10
240.3322540483
 20
48.3312706198
 10
239.9172123447
 20
48.1049814823
 10
239.4601928698
 20
47.9074795253
 10
238.9671535714
 20
47.7413394889
 10
238.4445219707
 20
47.6087272625
 10
237.8991113699
 20
47.5113716493
 10
237.3380320303
 20
47.4505418285
 10
236.7685984791
 20
47.4270308101
 10
236.1982341536
 20
47.4411450959
 10
235.6343746249
 20
47.4927006848
 10
235.0843706643
 20
47.5810254707
 10
234.5553924147
 20
47.704968005
 10
234.0543359163
 20
47.8629125073
 10
233.5877332071
 20
48.0527999294
 10
233.1616671667
 20
48.2721547983
  0
LWPOLYLINE
  5
10B
330
1F
100
AcDbEntity
  8
0
  6
Continuous
 62
     1
370
    25
100
AcDbPolyline
 90
       42
 70
   128
 43
0.0
 10
207.6347552321
 20
24.9594224879
 10
207.8625385241
 20
24.877088967
 10
208.5731523033
 20
24.5848434755
 10
209.2888154621
 20
24.2374004311
 10
210.0066462775
 20
23.8361588643
 10
210.723754298
 20
23.3827344333
 10
211.4372519829
 20
22.8789529182
 10
212.1442663287
 20
22.3268428694
 10
212.8419504383
 20
21.7286274392
 10
213.5274949839
 20
21.08671543
 10
214.1981395197
 20
20.4036915949
 10
214.8511835967
 20
19.6823062297
 10
215.4839976371
 20
18.9254640988
 10
216.0940335219
 20
18.1362127384
 10
216.678834852
 20
17.317730185
 10
217.2360468389
 20
16.473312179
 10
217.7634257864
 20
15.6063588937
 10
218.2588481259
 20
14.720361244
 10
218.7203189662
 20
13.8188868298
 10
219.1459801273
 20
12.9055655703
 10
219.5341176219
 20
11.9840750878
 10
219.8831685572
 20
11.0581258994
 10
220.1917274284
 20
10.1314464756
 10
220.4585517778
 20
9.2077682274
 10
220.6825671979
 20
8.290810481
 10
220.8628716576
 20
7.3842655017
 10
220.9987391346
 20
6.4917836262
 10
221.0896225385
 20
5.616958564
 10
221.1351559138
 20
4.7633129267
 10
221.1351559138
 20
3.9342840442
 10
221.0896225385
 20
3.1332101232
 10
220.9987391346
 20
2.3633168055
 10
220.8628716576
 20
1.6277041799
 10
220.6825671979
 20
0.9293342987
 10
220.4585517778
 20
0.271019251
 10
220.1917274284
 20
-0.3445901609
 10
219.8831685572
 20
-0.9150150951
 10
219.5341176219
 20
-1.4379586518
 10
219.1459801273
 20
-1.9113151218
 10
218.7203189662
 20
-2.3331784657
 10
218.2588481259
 20
-2.7018499887
 10
217.8264348744
 20
-2.9800403313
  0
LWPOLYLINE
  5
10C
330
1F
100
AcDbEntity
  8
0
  6
Continuous
 62
     1
370
    25
100
AcDbPolyline
 90
       51
 70
   128
 43
0.0
 10
219.5054630561
 20
34.9386583609
 10
219.8283552211
 20
35.1105870262
 10
220.3709238486
 20
35.340267287
 10
220.9422181295
 20
35.5125340408
 10
221.5399376634
 20
35.6266936302
 10
222.1616756448
 20
35.6822863747
 10
222.804928554
 20
35.679088422
 10
223.4671062388
 20
35.6171126491
 10
224.1455423434
 20
35.4966086107
 10
224.8375050448
 20
35.3180615339
 10
225.5402080537
 20
35.0821903647
 10
226.250821833
 20
34.7899448733
 10
226.9664849918
 20
34.4425018289
 10
227.6843158071
 20
34.0412602621
 10
228.4014238277
 20
33.5878358311
 10
229.1149215125
 20
33.084054316
 10
229.8219358584
 20
32.5319442672
 10
230.5196199679
 20
31.933728837
 10
231.2051645136
 20
31.2918168278
 10
231.8758090493
 20
30.6087929926
 10
232.5288531264
 20
29.8874076275
 10
233.1616671667
 20
29.1305654966
 10
233.7717030516
 20
28.3413141362
 10
234.3565043817
 20
27.5228315827
 10
234.9137163685
 20
26.6784135768
 10
235.4410953161
 20
25.8114602915
 10
235.9365176555
 20
24.9254626418
 10
236.3979884959
 20
24.0239882276
 10
236.823649657
 20
23.110666968
 10
237.2117871515
 20
22.1891764856
 10
237.5608380869
 20
21.2632272972
 10
237.8693969581
 20
20.3365478734
 10
238.1362213075
 20
19.4128696252
 10
238.3602367275
 20
18.4959118788
 10
238.5405411873
 20
17.5893668995
 10
238.6764086643
 20
16.696885024
 10
238.7672920681
 20
15.8220599617
 10
238.8128254435
 20
14.9684143245
 10
238.8128254435
 20
14.139385442
 10
238.7672920681
 20
13.338311521
 10
238.6764086643
 20
12.5684182033
 10
238.5405411873
 20
11.8328055777
 10
238.3602367275
 20
11.1344356965
 10
238.1362213075
 20
10.4761206488
 10
237.8693969581
 20
9.8605112369
 10
237.5608380869
 20
9.2900863027
 10
237.2117871515
 20
8.767142746
 10
236.823649657
 20
8.293786276
 10
236.3979884959
 20
7.8719229321
 10
235.9365176555
 20
7.5032514091
 10
235.5041627783
 20
7.2250947647
  0
ENDSEC
  0
SECTION
  2
OBJECTS
  0
DICTIONARY
  5
C
330
0
100
AcDbDictionary
281
     1
  3
ACAD_GROUP
350
D
  3
ACAD_LAYOUT
350
1A
  3
ACAD_MLINESTYLE
350
17
  3
ACAD_PLOTSETTINGS
350
19
  3
ACAD_PLOTSTYLENAME
350
E
  3
ACAD_SCALELIST
350
47
  3
DWGPROPS
350
10D
  0
DICTIONARY
  5
D
102
{ACAD_REACTORS
330
C
102
}
330
C
100
AcDbDictionary
281
     1
  0
DICTIONARY
  5
1A
102
{ACAD_REACTORS
330
C
102
}
330
C
100
AcDbDictionary
281
     1
  3
Layout1
350
1E
  3
Layout2
350
26
  3
Model
350
22
  0
DICTIONARY
  5
17
102
{ACAD_REACTORS
330
C
102
}
330
C
100
AcDbDictionary
281
     1
  3
Standard
350
18
  0
DICTIONARY
  5
19
102
{ACAD_REACTORS
330
C
102
}
330
C
100
AcDbDictionary
281
     1
  0
ACDBDICTIONARYWDFLT
  5
E
102
{ACAD_REACTORS
330
C
102
}
330
C
100
AcDbDictionary
281
     1
  3
Normal
350
F
100
AcDbDictionaryWithDefault
340
F
  0
DICTIONARY
  5
47
102
{ACAD_REACTORS
330
C
102
}
330
C
100
AcDbDictionary
281
     1
  3
A0
350
48
  3
A1
350
49
  3
A2
350
4A
  3
A3
350
4B
  3
A4
350
4C
  3
A5
350
4D
  3
A6
350
4E
  3
A7
350
4F
  3
A8
350
50
  3
A9
350
51
  3
B0
350
52
  3
B1
350
53
  3
B2
350
54
  3
B3
350
55
  3
B4
350
56
  3
B5
350
57
  3
B6
350
58
  3
B7
350
59
  3
B8
350
5A
  3
B9
350
5B
  3
C0
350
5C
  3
C1
350
5D
  3
C2
350
5E
  3
C3
350
5F
  3
C4
350
60
  3
C5
350
61
  3
C6
350
62
  3
C7
350
63
  3
C8
350
64
  3
C9
350
65
  3
D0
350
66
  3
D1
350
67
  3
D2
350
68
  0
XRECORD
  5
10D
102
{ACAD_REACTORS
330
C
102
}
330
C
100
AcDbXrecord
280
     1
  1
DWGPROPS COOKIE
  2

  3

  4

  6

  7

  8
b.kav
  9

300
=
301
=
302
=
303
=
304
=
305
=
306
=
307
=
308
=
309
=
 40
0.0
 41
2459954.239239039
 42
2459954.239240127
  1

 90
        0
  0
LAYOUT
  5
1E
102
{ACAD_REACTORS
330
1A
102
}
330
1A
100
AcDbPlotSettings
  1

  2
none_device
  4

  6

 40
0.0
 41
0.0
 42
0.0
 43
0.0
 44
0.0
 45
0.0
 46
0.0
 47
0.0
 48
0.0
 49
0.0
140
0.0
141
0.0
142
1.0
143
1.0
 70
   688
 72
     1
 73
     0
 74
     5
  7

 75
    16
147
1.0
148
0.0
149
0.0
100
AcDbLayout
  1
Layout1
 70
     1
 71
     1
 10
0.0
 20
0.0
 11
420.0
 21
297.0
 12
0.0
 22
0.0
 32
0.0
 14
1.0000000000E+20
 24
1.0000000000E+20
 34
1.0000000000E+20
 15
-1.0000000000E+20
 25
-1.0000000000E+20
 35
-1.0000000000E+20
146
0.0
 13
0.0
 23
0.0
 33
0.0
 16
1.0
 26
0.0
 36
0.0
 17
0.0
 27
1.0
 37
0.0
 76
     0
330
1B
  0
LAYOUT
  5
26
102
{ACAD_REACTORS
330
1A
102
}
330
1A
100
AcDbPlotSettings
  1

  2
none_device
  4

  6

 40
0.0
 41
0.0
 42
0.0
 43
0.0
 44
0.0
 45
0.0
 46
0.0
 47
0.0
 48
0.0
 49
0.0
140
0.0
141
0.0
142
1.0
143
1.0
 70
   688
 72
     1
 73
     0
 74
     5
  7

 75
    16
147
1.0
148
0.0
149
0.0
100
AcDbLayout
  1
Layout2
 70
     1
 71
     2
 10
0.0
 20
0.0
 11
0.0
 21
0.0
 12
0.0
 22
0.0
 32
0.0
 14
0.0
 24
0.0
 34
0.0
 15
0.0
 25
0.0
 35
0.0
146
0.0
 13
0.0
 23
0.0
 33
0.0
 16
1.0
 26
0.0
 36
0.0
 17
0.0
 27
1.0
 37
0.0
 76
     0
330
23
  0
LAYOUT
  5
22
102
{ACAD_REACTORS
330
1A
102
}
330
1A
100
AcDbPlotSettings
  1

  2
none_device
  4
Letter_(8.50_x_11.00_Inches)
  6

 40
6.35
 41
6.35
 42
6.35000508
 43
6.35000508
 44
215.9
 45
279.4
 46
0.0
 47
0.0
 48
0.0
 49
0.0
140
0.0
141
0.0
142
1.0
143
1.0
 70
  1712
 72
     1
 73
     0
 74
     0
  7

 75
     0
147
1.0
148
0.0
149
0.0
100
AcDbLayout
  1
Model
 70
     1
 71
     0
 10
0.0
 20
0.0
 11
279.4
 21
215.9
 12
0.0
 22
0.0
 32
0.0
 14
0.0
 24
0.0
 34
0.0
 15
279.4
 25
215.9
 35
0.0
146
0.0
 13
0.0
 23
0.0
 33
0.0
 16
1.0
 26
0.0
 36
0.0
 17
0.0
 27
1.0
 37
0.0
 76
     0
330
1F
331
29
  0
MLINESTYLE
  5
18
102
{ACAD_REACTORS
330
17
102
}
330
17
100
AcDbMlineStyle
  2
Standard
 70
     0
  3

 62
   256
 51
90.0
 52
90.0
 71
     2
 49
0.5
 62
   256
  6
BYLAYER
 49
-0.5
 62
   256
  6
BYLAYER
  0
ACDBPLACEHOLDER
  5
F
102
{ACAD_REACTORS
330
E
102
}
330
E
  0
SCALE
  5
48
102
{ACAD_REACTORS
330
47
102
}
330
47
100
AcDbScale
 70
     0
300
1:1
140
1.0
141
1.0
290
     1
  0
SCALE
  5
49
102
{ACAD_REACTORS
330
47
102
}
330
47
100
AcDbScale
 70
     0
300
1:2
140
1.0
141
2.0
290
     0
  0
SCALE
  5
4A
102
{ACAD_REACTORS
330
47
102
}
330
47
100
AcDbScale
 70
     0
300
1:4
140
1.0
141
4.0
290
     0
  0
SCALE
  5
4B
102
{ACAD_REACTORS
330
47
102
}
330
47
100
AcDbScale
 70
     0
300
1:5
140
1.0
141
5.0
290
     0
  0
SCALE
  5
4C
102
{ACAD_REACTORS
330
47
102
}
330
47
100
AcDbScale
 70
     0
300
1:8
140
1.0
141
8.0
290
     0
  0
SCALE
  5
4D
102
{ACAD_REACTORS
330
47
102
}
330
47
100
AcDbScale
 70
     0
300
1:10
140
1.0
141
10.0
290
     0
  0
SCALE
  5
4E
102
{ACAD_REACTORS
330
47
102
}
330
47
100
AcDbScale
 70
     0
300
1:16
140
1.0
141
16.0
290
     0
  0
SCALE
  5
4F
102
{ACAD_REACTORS
330
47
102
}
330
47
100
AcDbScale
 70
     0
300
1:20
140
1.0
141
20.0
290
     0
  0
SCALE
  5
50
102
{ACAD_REACTORS
330
47
102
}
330
47
100
AcDbScale
 70
     0
300
1:30
140
1.0
141
30.0
290
     0
  0
SCALE
  5
51
102
{ACAD_REACTORS
330
47
102
}
330
47
100
AcDbScale
 70
     0
300
1:40
140
1.0
141
40.0
290
     0
  0
SCALE
  5
52
102
{ACAD_REACTORS
330
47
102
}
330
47
100
AcDbScale
 70
     0
300
1:50
140
1.0
141
50.0
290
     0
  0
SCALE
  5
53
102
{ACAD_REACTORS
330
47
102
}
330
47
100
AcDbScale
 70
     0
300
1:100
140
1.0
141
100.0
290
     0
  0
SCALE
  5
54
102
{ACAD_REACTORS
330
47
102
}
330
47
100
AcDbScale
 70
     0
300
2:1
140
2.0
141
1.0
290
     0
  0
SCALE
  5
55
102
{ACAD_REACTORS
330
47
102
}
330
47
100
AcDbScale
 70
     0
300
4:1
140
4.0
141
1.0
290
     0
  0
SCALE
  5
56
102
{ACAD_REACTORS
330
47
102
}
330
47
100
AcDbScale
 70
     0
300
8:1
140
8.0
141
1.0
290
     0
  0
SCALE
  5
57
102
{ACAD_REACTORS
330
47
102
}
330
47
100
AcDbScale
 70
     0
300
10:1
140
10.0
141
1.0
290
     0
  0
SCALE
  5
58
102
{ACAD_REACTORS
330
47
102
}
330
47
100
AcDbScale
 70
     0
300
100:1
140
100.0
141
1.0
290
     0
  0
SCALE
  5
59
102
{ACAD_REACTORS
330
47
102
}
330
47
100
AcDbScale
 70
     0
300
1/128" = 1'-0"
140
0.0078125
141
12.0
290
     0
  0
SCALE
  5
5A
102
{ACAD_REACTORS
330
47
102
}
330
47
100
AcDbScale
 70
     0
300
1/64" = 1'-0"
140
0.015625
141
12.0
290
     0
  0
SCALE
  5
5B
102
{ACAD_REACTORS
330
47
102
}
330
47
100
AcDbScale
 70
     0
300
1/32" = 1'-0"
140
0.03125
141
12.0
290
     0
  0
SCALE
  5
5C
102
{ACAD_REACTORS
330
47
102
}
330
47
100
AcDbScale
 70
     0
300
1/16" = 1'-0"
140
0.0625
141
12.0
290
     0
  0
SCALE
  5
5D
102
{ACAD_REACTORS
330
47
102
}
330
47
100
AcDbScale
 70
     0
300
3/32" = 1'-0"
140
0.09375
141
12.0
290
     0
  0
SCALE
  5
5E
102
{ACAD_REACTORS
330
47
102
}
330
47
100
AcDbScale
 70
     0
300
1/8" = 1'-0"
140
0.125
141
12.0
290
     0
  0
SCALE
  5
5F
102
{ACAD_REACTORS
330
47
102
}
330
47
100
AcDbScale
 70
     0
300
3/16" = 1'-0"
140
0.1875
141
12.0
290
     0
  0
SCALE
  5
60
102
{ACAD_REACTORS
330
47
102
}
330
47
100
AcDbScale
 70
     0
300
1/4" = 1'-0"
140
0.25
141
12.0
290
     0
  0
SCALE
  5
61
102
{ACAD_REACTORS
330
47
102
}
330
47
100
AcDbScale
 70
     0
300
3/8" = 1'-0"
140
0.375
141
12.0
290
     0
  0
SCALE
  5
62
102
{ACAD_REACTORS
330
47
102
}
330
47
100
AcDbScale
 70
     0
300
1/2" = 1'-0"
140
0.5
141
12.0
290
     0
  0
SCALE
  5
63
102
{ACAD_REACTORS
330
47
102
}
330
47
100
AcDbScale
 70
     0
300
3/4" = 1'-0"
140
0.75
141
12.0
290
     0
  0
SCALE
  5
64
102
{ACAD_REACTORS
330
47
102
}
330
47
100
AcDbScale
 70
     0
300
1" = 1'-0"
140
1.0
141
12.0
290
     0
  0
SCALE
  5
65
102
{ACAD_REACTORS
330
47
102
}
330
47
100
AcDbScale
 70
     0
300
1-1/2" = 1'-0"
140
1.5
141
12.0
290
     0
  0
SCALE
  5
66
102
{ACAD_REACTORS
330
47
102
}
330
47
100
AcDbScale
 70
     0
300
3" = 1'-0"
140
3.0
141
12.0
290
     0
  0
SCALE
  5
67
102
{ACAD_REACTORS
330
47
102
}
330
47
100
AcDbScale
 70
     0
300
6" = 1'-0"
140
6.0
141
12.0
290
     0
  0
SCALE
  5
68
102
{ACAD_REACTORS
330
47
102
}
330
47
100
AcDbScale
 70
     0
300
1'-0" = 1'-0"
140
12.0
141
12.0
290
     0
  0
ENDSEC
  0
EOF
